Oops, an error
Loading. Please wait.

The Colorful Quiet - Survival Tab

1,232 views 1 this week
1 commentread comment
1 2 3 4 5
please rate
add to favorites
launch autoscroll
font size
0
reset
how to read this tab
guitar tuner
Autoscroll
slow
fast
+/-
esc
set tempo
stop
Help us to improve Ultimate-Guitar.com Take our survey!
×
---------------------------------------------------------------------------
                         Survival - The Colorful Quiet
---------------------------------------------------------------------------

Tabbed by: americanclassic

Tuning: Standard


           C                Am                F
e|-----------------|-----------------|-----------------|
B|-------1---------|-------1---------|-------1---------|
G|---0-------0---0-|---2-------2---2-|---2-------2---2-|
D|-----2-------2---|-----2-------2---|-----3-------3---|
A|-3-------3-------|-0-------0-------|-0-------0-------|
E|-----------------|-----------------|-----------------|

each of these is played 4x before moving on to the next one
except for the F, which is only played 3x before moving on to Fadd9:


       Fadd9
e|---------------3-|-3-|
B|-------1---------|-1-|
G|---2-------2-----|-2-|
D|-----3-------3---|-3-|
A|-0-------0-------|-0-|
E|-----------------|---|

this is also only played three times, and then do one a downward strum of the whole 
(as indicated above).
except right before the chorus just do the Fadd9 4 times, instead of 3, and don't do the 
strum.


Here's the lyrics:

If you’re not fit for survival and headed on your way
And you forfeit the revival of the songs you used to play
So remember where you came from ‘cause one day you will be there again

In the face of reminiscing I think of her as tall
Just incase she's listening, I’ll admit it was my fault
She believes all that I tell her, I wouldn't want to hurt her again

And I was never sure of the way my life would go
Many times before, it was that all I would know
I can't really tell you what would happen if I tried
To admit to myself that a part of me has died

I can see the sun is melting as she slowly fades away
But there was just no helping all the words I tried to say
If there was we would have made it, there can be no turning back now

So it's off with good intentions and on with what is best
Until I find the place where I belong just like the rest
Should have guessed it would have taken a couple times or more before I’d know

And I was never sure of the way my life would go
Many times before, it was that all I would know
I can't really tell you what would happen if I tried
To admit to myself that a part of me has died

Enjoy!
Suggest correction
Give kudos to tab author, rate the tab!
1 2 3 4 5
comments
print report bad tab
1 comment total.
0 reply
theroguecellist 10 wrote on October 5 2008, 06:08 pm

Thanks, this is a pretty good tab for a great song. I believe this is also the only tab for this song by TCQ, and I appreciate you tabbing it. Nice job.

guest
You may want to rate the tab now too:
select rating
Wanna post a correction for this tab? Suggest correction