Oops, an error
Loading. Please wait.

The Commons - Dpd tab

13 views 1 this week
no commentswrite comment
1 2 3 4 5
3 more votes to show rating
add to favorites
×
Save as Personal and add changes to this tab that will be seen only by you. Learn more ›
×
You can save this tab as Personal to edit and correct it or add notes. All changes will be seen only by you. Learn more »
launch autoscroll
font size
0
reset
how to read this tab
guitar tuner
edit
Autoscroll
slow
fast
+/-
esc
set tempo
stop
Author
Difficulty
[Intro]

Guitar I

e|---------------------------------------------------------------|
B|---------------------------------------------------------------|
G|---------------------------------------------------------------|
D|----7-7--------3-3---2-2---------------------------------------| X2
A|----7-7--------3-3---2-2---------------------------------------|
E|----5-5--------1-1---0-0---------------------------------------|


[Verse]

Guitar I

e|---------------------------------------------------------------|
B|---------------------------------------------------------------|
G|---------------------------------------------------------------|
D|----7-7--------3-3---2-2-------------------7-7-----------------|
A|----7-7--------3-3---2-2--------x9---------7-7-----------------|
E|----5-5--------1-1---0-0-------------------5-5-----------------|

Guitar II

e|---------------------------------------------------------------|
B|---------5--------~--------------------------------------------|
G|-------------7b(9)~--------------------------------------------|
D|---------------------------------------------------------------|
A|---------------------------------------------------------------|
E|-----------------------------------12\-------------------------|

e|----------------------------------------------------------------------------|
B|--------------------------------------------------5-----------------5~------|
G|----------------------------------------------5------5---x7------5----------|
D|----7-7--------3-3---2-2-------------------7------------------7-------------|
A|----7-7--------3-3---2-2--------x4------------------------------------------|
E|----5-5--------1-1---0-0----------------------------------------------------|

Chorus I

Guitar I

e|-----------------------------------------------------------------------|
B|-----------------------------------------------------------------------|
G|--------------------------------------x-5---5---5-5--------------------|
D|----x-7---7---7-7----x-3---3---3-3----x-5---5---5-5----x-2---2---2-2---|  X6
A|----x-7---7---7-7----x-3---3---3-3----x-3---3---3-3----x-2---2---2-2---|
E|----x-5---5---5-5----x-1---1---1-1----x-3---3---3-3----x-0---0---0-0---|

Guitar II

e|------------------------------------------------------------------------------|
B|---5------------5-----------------------------5-----------5--------~----------|
G|-------7b(9)--------7b9r7-5--5--7b9r7--5----------7b(9)-------7b(9)~----------|
D|------------------------------------------------------------------------------|
A|------------------------------------------------------------------------------|
E|------------------------------------------------------------------------------|

e|-------------------------------------------------------------------------------------------------|
B|---5------------5-----------------------------5--------------10----------------10----------~-\---|
G|-------7b(9)--------7b9r7-5--5--7b9r7--5----------7b(9)-x8--------12b(14)-x4--------12b(14)~-\---|
D|-------------------------------------------------------------------------------------------------|
A|-------------------------------------------------------------------------------------------------|
E|-------------------------------------------------------------------------------------------------|

e|----------------------------------------------------------------------|
B|----------------------------------------------------------------------|
G|--------------------------------------x-5---5---5-5----/-7------------|
D|----x-7---7---7-7----x-3---3---3-3----x-5---5---5-5----/-5--x8--------|  X2
A|----x-7---7---7-7----x-3---3---3-3----x-3---3---3-3----/-7------------|
E|----x-5---5---5-5----x-1---1---1-1----x-3---3---3-3----/-7------------|

e|-------------------------------------------------------------------------------------------------|
B|--------------------------------------5----------------------10-----------------10----------~----|
G|------------------------------------------7b(9)--x8---------------12b(14)--x3--------12b(14)~----|
D|----x-7---7---7-7----x-3---3---3-3---------------------------------------------------------------|  x2
A|----x-7---7---7-7----x-3---3---3-3---------------------------------------------------------------|
E|----x-5---5---5-5----x-1---1---1-1---------------------------------------------------------------|


[Verse II]

Guitar I

e|---------------------------------------------------------------|
B|---------------------------------------------------------------|
G|---------------------------------------------------------------|
D|----7-7\-------3-3---2-2-------------------7-7-----------------|
A|----7-7\-------3-3---2-2--------x7---------7-7-----------------|
E|----5-5\-------1-1---0-0-------------------5-5-----------------|
 (slide down on the first A of the second verse only)

Guitar II

e|----------------------------------------------------------------------------|
B|--------------------------------------------------5-----------------5~------|
G|----------------------------------------------5------5---x11------5---------|
D|----7-7\-------3-3---2-2-------------------7------------------7-------------|
A|----7-7\-------3-3---2-2--------x2------------------------------------------|
E|----5-5\-------1-1---0-0----------------------------------------------------|
 (slide down on the first A of the second verse only)


[Chorus II]

Guitar I

e|-----------------------------------------------------------------------|
B|-----------------------------------------------------------------------|
G|--------------------------------------x-5---5---5-5--------------------|
D|----x-7---7---7-7----x-3---3---3-3----x-5---5---5-5----x-2---2---2-2---|  X6
A|----x-7---7---7-7----x-3---3---3-3----x-3---3---3-3----x-2---2---2-2---|
E|----x-5---5---5-5----x-1---1---1-1----x-3---3---3-3----x-0---0---0-0---|

Guitar II

e|------------------------------------------------------------------------------|
B|---5------------5-----------------------------5-----------5--------~----------|
G|-------7b(9)--------7b9r7-5--5--7b9r7--5----------7b(9)-------7b(9)~----------|
D|------------------------------------------------------------------------------|
A|------------------------------------------------------------------------------|
E|------------------------------------------------------------------------------|

e|-------------------------------------------------------------------------------------------------|
B|---5------------5-----------------------------5--------------10----------------10----------~-\---|
G|-------7b(9)--------7b9r7-5--5--7b9r7--5----------7b(9)-x8--------12b(14)-x4--------12b(14)~-\---|
D|-------------------------------------------------------------------------------------------------|
A|-------------------------------------------------------------------------------------------------|
E|-------------------------------------------------------------------------------------------------|

e|----------------------------------------------------------------------|
B|----------------------------------------------------------------------|
G|--------------------------------------x-5---5---5-5----/-7------------|
D|----x-7---7---7-7----x-3---3---3-3----x-5---5---5-5----/-5--x8--------|  X2
A|----x-7---7---7-7----x-3---3---3-3----x-3---3---3-3----/-7------------|
E|----x-5---5---5-5----x-1---1---1-1----x-3---3---3-3----/-7------------|

e|-------------------------------------------------------------------------------------------------|
B|--------------------------------------5----------------------10-----------------10----------~----|
G|------------------------------------------7b(9)--x8---------------12b(14)--x3--------12b(14)~----|
D|----x-7---7---7-7----x-3---3---3-3---------------------------------------------------------------|  x2
A|----x-7---7---7-7----x-3---3---3-3---------------------------------------------------------------|
E|----x-5---5---5-5----x-1---1---1-1---------------------------------------------------------------|


[Pre-solo]

Guitar I

e|---------------------------------------------------------------|
B|---------------------------------------------------------------|
G|---------------------------------------------------------------|
D|----2----------------------------------------------------------|
A|----2--x8------------------------------------------------------|
E|----0----------------------------------------------------------|

Guitar II

e|---------------------------------------------------------------|
B|---------------------------------------------------------------|
G|---------------------------------------------------------------|
D|---------------------------------------------------------------|
A|----x///-------------------------------------------------------|
E|----x///-------------------------------------------------------|
  (Pick scrape)


[Solo]

Guitar I

e|-----------------------------------------------------------------------|
B|-----------------------------------------------------------------------|
G|--------------------------------------x-5---5---5-5--------------------|
D|----x-7---7---7-7----x-3---3---3-3----x-5---5---5-5----x-2---2---2-2---|  X6
A|----x-7---7---7-7----x-3---3---3-3----x-3---3---3-3----x-2---2---2-2---|
E|----x-5---5---5-5----x-1---1---1-1----x-3---3---3-3----x-0---0---0-0---|

Guitar II

e|---------------------------------------------------------------|
B|---------------------------------------------------------------|
G|----------------------4b-4~-----------------------4b-4~--------|
D|---7--9br--7--9br--3-----------7--9br--7--9br--3---------------|
A|---------------------------------------------------------------|
E|----------------------------------------------------------12\--|

e|---------------------------------------------------------------------------|
B|---------------------------------------------------------------------------|
G|----------------------------------------------4-----4----/10-10-10-10-9~---|
D|---7-9-7-9br-9-9-9--7-7h9p7-9br--9-9-9----3-3---3-3---3--------------------| x2
A|---------------------------------------------------------------------------|
E|---------------------------------------------------------------------------|

e|---------------------------------------------------------------------------------------------------|
B|---10-12-10-12br-12-12-12-10-10h12p10--12br--12-12-12------------------------------------9-9-9-9---|
G|--------------------------------------------------------10-10-10-10-10-10-10-10--9-9-9-9-----------|
D|---------------------------------------------------------------------------------------------------|
A|---------------------------------------------------------------------------------------------------|
E|---------------------------------------------------------------------------------------------------|

e|----------------------------------------------------------------------------------------------------------|
B|---10-12-10-12br-12-12-12-10-10h12p10--12br--12-12-12------------------------------------9-9-9-9--10~~~---|
G|--------------------------------------------------------10-10-10-10-10-10-10-10--9-9-9-9------------------|
D|----------------------------------------------------------------------------------------------------------|
A|----------------------------------------------------------------------------------------------------------|
E|----------------------------------------------------------------------------------------------------------|


[Bridge]

Guitar I

e|---------------------------------------------------------------|
B|---------------------------------------------------------------|
G|---------------------------------------------------------------|
D|---3~----------------------------------------------------------|
A|---3~-------------------------------------------------x\\\-----|
E|---5~-------------------------------------------------x\\\-----|

Guitar II

e|---12~-----10--12-12~------------------------------------------|
B|---10~-----10--10-10~------------------------------------------|
G|---------------------------------------------------------------|
D|---------------------------------------------------------------|
A|-------------------------------------------------------x\\\----|
E|-------------------------------------------------------x\\\----|
                        |------(Allow Feedback)------|

[Chorus III]

Guitar I

e|-----------------------------------------------------------------------|
B|-----------------------------------------------------------------------|
G|--------------------------------------x-5---5---5-5--------------------|
D|----x-7---7---7-7----x-3---3---3-3----x-5---5---5-5----x-2---2---2-2---|  X6
A|----x-7---7---7-7----x-3---3---3-3----x-3---3---3-3----x-2---2---2-2---|
E|----x-5---5---5-5----x-1---1---1-1----x-3---3---3-3----x-0---0---0-0---|

Guitar II

e|-----------------------------------------------------------------------|
B|-----------------------------------------------------------------------|
G|--------------------------------------x-5---5---5-5----/-7-------------|
D|----x-7---7---7-7----x-3---3---3-3----x-5---5---5-5----/-5--x8---------|  X4
A|----x-7---7---7-7----x-3---3---3-3----x-3---3---3-3----/-7-------------|
E|----x-5---5---5-5----x-1---1---1-1----x-3---3---3-3----/-7-------------|

e|-------------------------------------------------------------------------------------------------|
B|--------------------------------------5----------------------10-----------------10----------~----|
G|------------------------------------------7b(9)--x8---------------12b(14)--x3--------12b(14)~----|
D|----x-7---7---7-7----x-3---3---3-3---------------------------------------------------------------|  x2
A|----x-7---7---7-7----x-3---3---3-3---------------------------------------------------------------|
E|----x-5---5---5-5----x-1---1---1-1---------------------------------------------------------------|


[Outro]

Guitar I

e|---------------------------------------------------------------|
B|---------------------------------------------------------------|
G|---------------------------------------------------------------|
D|---7-7---------------------------------------------------------| x4
A|---7-7---------------------------------------------------------|
E|---5-5--5\-----------------------------------------------------|

Guitar II

e|---------------------------------------------------------------|
B|---------------------------------------------------------------|
G|---------------------------------------------------------------|
D|----7-7--------3-3---2-2---------------------------------------| X4
A|----7-7--------3-3---2-2---------------------------------------|
E|----5-5--------1-1---0-0---------------------------------------|

Both guitar finish on:

e|---------------------------------------------------------------|
B|---------------------------------------------------------------|
G|---------------------------------------------------------------|
D|---7\----------------------------------------------------------|
A|---7\----------------------------------------------------------|
E|---5\----------------------------------------------------------|



************************************

| x   Dead note
| h   Hammer-on
| p   Pull-off
| r   Release
| b   Bend
| br  Bend release
| /   Slide up
| \   Slide down
| ~   Vibrato

************************************

            
            
Suggest correction
Creating personal tab
Creating personal tab
You can edit any tab online and save it as your Personal.

You can edit, replace or remove any tab part or add personal notes – all changes will be seen only by you.

Personal tabs can be accessed anytime from any device, even offline.
Learn more »
Give kudos to tab author, rate the tab!
1 2 3 4 5
comments
print report bad tab
guest
You may want to rate the tab now too:
select rating
Wanna post a correction for this tab? Suggest correction