Oops, an error
Loading. Please wait.

The Company Band - Fortunes A Mistress Tab

927 views 1 this week
no commentswrite comment
1 2 3 4 5
excellent!
x 1
add to favorites
launch autoscroll
font size
0
reset
how to read this tab
guitar tuner
Tab Pro tools
  • play this tab
  • loop segment
  • change instrument
  • show fretboard
  • metronome
Autoscroll
slow
fast
+/-
esc
set tempo
stop
Contributor
Transcribed by Blake Tomasch
if you have any questions, email me at xexodusx@msn.com

The Company Band consists of Clutch vocalist Neil Fallon, CKY drummer Jess Margera, Rev. 
Rota of Fireball Ministry, Dave Bone, and bassist Jason Diamond.

Their website is www.thecoband.com

Album: Sign Here, Here, and Here
Song: Fortune's a Mistress

INTRO

Guitar 1

  P.M.|_ _ _ _ _ _ _ _|
e|------------------------|
B|------------------------|
G|------------------------|
D|-----5--/-/-/-/-/-------|
A|-----3-/-/-/-/-/--------|
E|------------------------|

(repeat throughout guitar 2's part)

Guitar 2

Repeat 4x

|------------------------------------------------------------------------|
|------------------------------------------------------------------------|
|------------------------------------------------------------------------|
|-----------5--5-------------4--4-------------5--4--5--4h5p4----3--5--3--|
|--3--6--6----------3--6--6----------3--6--6--------------------5--6--5--|
|------------------------------------------------------------------------|

On the fourth time, play this

|------------------------------------------------------------------------|
|------------------------------------------------------------------------|
|-------------------------------------------------------------3----------|
|-----------5--5-------------4--4-------------5--4--5--4h5p4-------------|
|--3--6--6----------3--6--6----------3--6--6-----------------------------|
|------------------------------------------------------------------------|

VERSES

cycles from beginning to end 3x

|--------------------------------------------------------------------------|
|--------------------------------------------------------------------------|
|--5--5---x-x---5--5--5--10---8--10--8---3--3---x-x---3--3--5---3--3--3----|
|--5--5---x-x---5--5--5--10---8--10--8---3--3---x-x---3--3--5---3--3--3----|
|--3--3---x-x---3--3--3--8----6--8---6---1--1---x-x---1--1--3---1--1--1----|
|--------------------------------------------------------------------------|

|--------------------------------------------------------------------------|
|--------------------------------------------------------------------------|
|--5--5---x-x---5--5--5--10---8--10--8---3--3--3--3--3--3--3--4-4----------|
|--5--5---x-x---5--5--5--10---8--10--8---3--3--3--3--3--3--3--4-4----------|
|--3--3---x-x---3--3--3--8----6--8---6---1--1--1--1--1--1--1--2-2----------|
|--------------------------------------------------------------------------|

on 3rd time, leads into chorus

CHORUS

Repeat 4x

strum freely.  this is the outline.

|------------------------------------------------------|
|------------------------------------------------------|
|--5--5--5--5--------------------------3--3--3--3------|
|--5--5--5--5--6--6--6--6--3--3--3--3--3--3--3--3------|
|--3--3--3--3--6--6--6--6--3--3--3--3--1--1--1--1------|
|--------------4--4--4--4--1--1--1--1------------------|

SOLO

Lead Guitar

|-----------------------------------------------------------------------|
|------------------------------------5b(6)rb5--3--5---------------------|
|--------6--5--5----------7--6--6----5b(6)rb5--3--5-----5b(6)rb5--3-----|
|--5--8-------------5--8---------------------------------------------5--|
|-----------------------------------------------------------------------|
|-----------------------------------------------------------------------|

|-----------------------------------------------------------------------|
|-11----11-----------------------11----11-------------------------------|
|----12----12-12-12-12-12-12-12-----12----12-12-12-12-12-12-12----------|
|-----------------------------------------------------------------------|
|-----------------------------------------------------------------------|
|-----------------------------------------------------------------------|

|-----------------------------------------------13b(15)rb13---13b(15)rb13--|
|----------------11----11--13--13b(15)rb13--11-----------------------------|
|-10-12-12-12-12----12-----------------------------------------------------|
|--------------------------------------------------------------------------|
|--------------------------------------------------------------------------|
|--------------------------------------------------------------------------|

Rhythm Guitar

plays behind solo

Repeat 2x

|-----------------------------------------------------------------------|
|-----------------------------------------------------------------------|
|-----------------------------------------------------------------------|
|-----------------------------------------------------------------------|
|-----------5--5-------------4--4-------------5--4--5--4h5p4---3--5--3--|
|--3--6--6----------3--6--6----------3--6--6-------------------5--6--5--|

CHORUS passage plays

OUTRO

let the root note of each chord ring

Repeat 4x

|--------------------------------------------------------------------------|
|--------------------------------------------------------------------------|
|------5--------5----------------------------------------------------------|
|------5----/5-----5--------6------6--------5------5-----------------------|
|--3------------------------6---6-----------5---5--------1---------------3-|
|-----------------------4---4-----------3---3----------------3---1---3-----|

on the fourth time end with this

|---------------------------|
|---------------------------|
|--------------------5--5---|
|--------------------5--5---|
|----1---------------3--3---|
|--------3---1---3----------|

--key--

 / = slide into
 h = hammer-on
 p = pull-off
 fb= full bend
 b(#) = bend to reach the sound of the fret #
 rb# = release bend to the sound of the fret #
comments
We did not receive enough feedback on this tab! Please rate:
print report bad tab
1 2 3 4 5
I want to post or [tab]
guest
You may want to rate the tab now too:
select rating
Please do not post tabs as comments. Select "correction" instead!