Oops, an error
Loading. Please wait.

The Coopers - Hit The Road Bass Tab

52 views 1 this week
no commentswrite comment
1 2 3 4 5
3 more votes to show rating
add to favorites
launch autoscroll
font size
0
reset
guitar tuner
Autoscroll
slow
fast
+/-
esc
set tempo
stop
Help us to improve Ultimate-Guitar.com Take our survey!
×
Author
Difficulty
novice
VERSE
-------------------------------------------------------|
-------------------------------------------------------|
-----------------5-5-5-5-------------------------------|
-------3-3-3-3-----------0-0-0-0-10-8-7-5--------------|

PRECHORUS
-------------------------------------------------------|
-------------------------------------------------------|
-------3-3-3-3-3-3-3-3-5-5-5-5-5-5-5-5-----------------|
-------------------------------------------------------|

-------------------------------------------------------|
-------------------------------------------------------|
-------7-7-7-7-7-7-7-7-10-10-10-10-8-7-3---------------|
-------------------------------------------------------|

CHORUS
-------------------------------------------------------|
-------------------------------------------------------|
-----------------5-5-5-5-7-7-7-7-----------------------|
-------3-3-3-3---------------------10-8-7-5------------|

Quality band The Coopers who played at RockNations 2009 :)
Suggest correction
Give kudos to tab author, rate the tab!
1 2 3 4 5
comments
print report bad tab
guest
You may want to rate the tab now too:
select rating
Wanna post a correction for this tab? Suggest correction