Oops, an error
Loading. Please wait.

The Crazy Boyz - You And Me Bass Tab

38 views 1 this week
no commentswrite comment
1 2 3 4 5
please rate
add to favorites
launch autoscroll
font size
0
reset
guitar tuner
Autoscroll
slow
fast
+/-
esc
set tempo
stop
Help us to improve Ultimate-Guitar.com Take our survey!
×
Author
song:you and me
band:The Crazy Boyz
single:you and your dreams (2009)
words and music: roy/remy

here's the main riff
intro/verse
g---------------------|
d---------------------|
a---------------------|
e-0-1-2-3-3-3-3-------|

chorus:
g-------1-------1-------3-------3--------1-------|
d---1-3-----1-3-----3-5-----3-5------------------|
a-3-------3-------5-------5-----------------3----|
e----------------------------------1-1-1---------|
bridge:
g------------------------------------|
d------------------------------------|
a--3-3-3-3-0-0-0-0-2-2-2-7-7-7-7-7-7-|
e------------------------------------|
Suggest correction
What's this?
You can suggest a correction to this tab. Community and Mods will review your correction and vote to approve or reject it.
comments
We did not receive enough feedback on this tab! Please rate:
print report bad tab
1 2 3 4 5
guest
You may want to rate the tab now too:
select rating
Please do not post tabs as comments. Select "correction" instead!