Oops, an error
Loading. Please wait.

The Crosstown Rivalry - Falling For You Acoustic Tab

version 3
version 3

Whole song

669 views 1 this week
3 commentsread comments
1 2 3 4 5
3 more votes to show rating
add to favorites
launch autoscroll
font size
0
reset
how to read this tab
guitar tuner
Autoscroll
slow
fast
+/-
esc
set tempo
stop
Help us to improve Ultimate-Guitar.com Take our survey!
×
Author
Difficulty
Tuning
intermediate
D A D G B E
-------------------------------------------------------------------------------
                             Falling for You - The Crosstown Rivilary 
-------------------------------------------------------------------------------
Tabbed by: King_CJ
Email: thadudechester@gmail.com


This is a novice song to play, but to sing with it you need some basic rythem.

Tuning: Drop D 

intro:  rythem
e|------------------|--------------------------------------------------------|
B|--33--77--77--55--|--------------------------------------------------------|
G|--44--77--77--77--|--------------------------------------------------------|
d|--xx--xx--xx--00--|-x2-----------------------------------------------------|
A|--22--55--55--xx--|--------------------------------------------------------|
D|----------55--77--|--------------------------------------------------------|

intro: lead
e|------0--------0-----------------------------------------------------------|
B|----3--3-3---3--3-3--------------------------------------------------------|
G|--22-2--2---2-2--2---------------------------------------------------------|
d|---------------------------------------------------------------------------|
A|---------------------------------------------------------------------------|
D|---------------------------------------------------------------------------|

verse:
e|------------------|-------5------------------------------------------------|
B|--33--77--77--55--|-------5------------------------------------------------|
G|--44--77--77--77--|-------7------------------------------------------------|
d|--xx--xx--xx--00--|-x4----0------------------------------------------------|
A|--11--55--55--xx--|-------0------------------------------------------------|
D|----------55--77--|-------0------------------------------------------------|

pre chorus
e|--------------0------------------------------------------------------------|
B|------5-------3------------------------------------------------------------|
G|--7---7---7---2------------------------------------------------------------|
d|--5---0---0---0------------------------------------------------------------|
A|--5---x---x---0---x2-------------------------------------------------------|
D|--5---7---9---0------------------------------------------------------------|

chorus:
e|--------------0------------------------------------------------------------|
B|--------------3------------------------------------------------------------|
G|--7---6---7---2---7---6---7---9---11---------------------------------------|
d|--5---0---0---0---5---0---0---0---0----------------------------------------|
A|--5---x---x---0---5---x---x---x---x----------------------------------------|
D|--5---7---9---0---5---7---9---11--12---------------------------------------|


intro
verse
pre chorus
chorus


piano part:
e|-------------------------------------------|-------------------------------|
B|------7---7--------7---|---------10-8787---|-------------------------------|
G|--------7---7--7/9-----|--x4------------7--|-------------------------------|
d|-------------------------------------------|-------------------------------|
A|-------------------------------------------|-------------------------------|
D|-------------------------------------------|-------------------------------|

ending:
e|---0-----------------|----------------0------------------------------------|
B|---3-----------------|----------------3------------------------------------|
G|---2---7---7---6-----|----------------2------------------------------------|
d|---0---5---0---0-----|--x8----end-on--0------------------------------------|
A|---0---5---x---x-----|----------------0------------------------------------|
D|---0---5---9---7-----|----------------0------------------------------------|



************************************

| /   slide up
| \   slide down
| h   hammer-on
| p   pull-off
| ~   vibrato
| +   harmonic
| x   Mute note


************************************
Suggest correction
Give kudos to tab author, rate the tab!
1 2 3 4 5
comments
print report bad tab
3 comments total.
0 reply
dashguitar 52 Jan 24, 2011 07:21 PM

ok that first chord is wrong? but the wrest sounds good its actualy a b not a bflat (2 on 5th) and not a f sharp its an E (2 on 4th) and dont x out the D string it sounds better and more full with it not x out

0 reply
King CJ 92 May 16, 2013 11:13 AM, edited on May 19 2014, 09:07 am

This tab is how they used to play this live. Also, do you prefer the way simple power chords sound in the other tabs?

edit: the first chord was wrong, i made a typo. just changed it

0 reply
dashguitar 52 Jan 24, 2011 07:34 PM

actually the chorus needs work too! it doesnt match up

guest
You may want to rate the tab now too:
select rating
Wanna post a correction for this tab? Suggest correction