Oops, an error
Loading. Please wait.

The Crosstown Rivalry - This Is Only Making Things Worse Tab

196 views 1 this week
no commentswrite comment
1 2 3 4 5
please rate
add to favorites
launch autoscroll
font size
0
reset
how to read this tab
guitar tuner
Tab Pro tools
  • play this tab
  • loop segment
  • change instrument
  • show fretboard
  • metronome
×
Best way to learn
"The Crosstown Rivalry - This Is Only Making Things Worse"
Autoscroll
slow
fast
+/-
esc
set tempo
stop
Contributor
The Crosstown Rivalry - This Is Only Making Things Worse
Tuning: Drop D (DADGBe)

Tabbed By Ear So Forgive Me If Its Slightly Wrong.
Not finished -(will complete rest later)

Intro/Chorus Variation: [x2]                    
|----------------------------------------|   
|----------------------------------------|   
|--22--44--66------2----------4----------|   
|--22--44--66--22--2-(Strum)--4-(Strum)--|  
|--00--22--44--22--0----------2----------|   
|--------------22------------------------|   
                                           
|-----------------------------|              
|-----------------------------|              
|--22--44--66------2----------|              
|--22--44--66--22--2-(Strum)--|              
|--00--22--44--22--0----------|            
|--------------22-------------|             

Verse: [x4]
(Last Chord Changes On 3rd/4th Time Through)
|----------1/2---|--3/4--|
|----------------|-------|
|--4~--6~---9~---|-------|
|--4~--6~---9~---|---2~--|
|--2~--4~---7~---|---2~--|
|----------------|---2~--|

Short Pre-Chorus: Two Strums Before The Chorus
|------|
|------|
|--22--|
|--22--|
|--00--|
|------|

Chorus: (Easy Strumming)
|----------------------------------|
|----------------------------------|
|--22-222--44-444--66-666----------|
|--22-222--44-444--66-666--22-222--|
|--00-000--22-222--44-444--22-222--|
|--------------------------22-222--|

|---------------------------------|
|---------------------------------|
|--22-222--44-444-----------------|
|--22-222--44-444--22-222-222-22--|
|--00-000--22-222--22-222-222-22--|
|------------------22-222-222-22--|

|------------------------------|
|------------------------------|
|--2-----4-----------66~--44~--|
|--2-x8--4-x8--2-----66~--44~--|
|--0-----2-----2-x8--44~--22~--|
|--------------2---------------|

|------------------------------|
|------------------------------|
|--2-----4-------------6~6~6~--|
|--2-x8--4-x8--2~2~2~--6~6~6~--|
|--0-----2-----2~2~2~--4~4~4~--|
|--------------2~2~2~----------|

Post-Chorus:
|-------------------|---------------------|
|-------------------|---------------------|
|--2~--------6~6~6--|--2~--------6-6-6-6--|
|--2~----2~--6~6~6--|--2~----2~--6-6-6-6--|
|--0~----2~--4~4~4--|--0~----2~--4-4-4-4--|
|--------2~---------|--------2~-----------|

Verse Two: [x2] (Not 100% on Strumming and Timing)
|---------------------------------------------------|
|---------------------------------------------------|
|--2-----2222---2-----4444--6-----6666--4-----6666--|
|--2-x6--2222---2-x6--4444--6-x6--6666--4-x6--6666--|
|--0-----0000---0-----2222--4-----4444--2-----4444--|
|---------------------------------------------------|

Pre-Chorus (Extended):
|----------------------------------|
|----------------------------------|
|--2~--2/4~--4/6~----2~--2/4~--2~--|
|--2~--2/4~--4/6~----2~--2/4~--2~--|
|--0~--0/2~--2/4~----0~--0/2~--0~--|
|----------------------------------|

|----------------|
|----------------|
|--2-----22-2-2--|
|--2-x5--22-2-2--|
|--0-----00-0-0--|
|----------------|

Chorus

Bridge:
comments
We did not receive enough feedback on this tab! Please rate:
print report bad tab
1 2 3 4 5
I want to post or [tab]
guest
You may want to rate the tab now too:
select rating
Please do not post tabs as comments. Select "correction" instead!