Oops, an error
Loading. Please wait.

The Crosstown Rivalry - With All The Right Intentions Tab

69 views 1 this week
no commentswrite comment
1 2 3 4 5
please rate
add to favorites
launch autoscroll
font size
0
reset
how to read this tab
guitar tuner
Autoscroll
slow
fast
+/-
esc
set tempo
stop
Help us to improve Ultimate-Guitar.com Take our survey!
×
Author
----------------------------------------------------------------------------
           "With All The Right Intentions" by The Crosstown Rivalry
----------------------------------------------------------------------------


INRO


E|----------------------------------------------|
B|----------------------------------------------|
G|----------------------------------------------|   x2
D|----------------------------------------------|
A|---2-2--2-2-2--11--9---2-2--2-2-2--7--6-------|
D|---2-2--2-2-2--11--9---2-2--2-2-2--7--6-------|

E|----------------------------------------------|
B|----------------------------------------------|
G|---------------9--11---------------13--11-----|   x2
D|---------------x---x----------------x---x-----|
A|---2-2--2-2-2--7---9---2-2--2-2-2--11---9-----|
D|---2-2--2-2-2----------2-2--2-2-2-------------|

E|----------------------------------------------------|
B|----------------------------------------------------|
G|----------------------------------------------------|
D|----------------------------------------------------|
A|---2-2--2-2-2--x-x-x--x-x-x--2-2--2-2-2--7-7-7-7----|
D|---2-2--2-2-2--x-x-x--x-x-x--2-2--2-2-2--7-7-7-7----|


VERSE I

E|------------------------------------------|
B|------------------------------------------|
G|------------------------------------------|   x2
D|------------------------------------------|
A|---2-2-2-2-6-6-7-7----2-2-2-2-11-11-7-9---|
D|---2-2-2-2-6-6-7-7----2-2-2-2-11-11-7-9---|


Pre-Chorus

E|-------------------------------------------------------------------|
B|-------------------------------------------------------------------|
G|-------------------------------------------------------------------|
D|-------------------------------------------------------------------|
A|---4-4-4-4-6-7-7-7---x-x-11-11-x-x-11-9-9-x-x-9-7-7-7-7------------|
D|---4-4-4-4-6-7-7-7---x-x-11-11-x-x-11-9-9-x-x-9-7-7-7-7------------|


Chorus

E|------------------|
B|------------------|
G|------------------|   x2
D|------------------|
A|---2--11--9--7----|
D|---2--11--9--7----|


Verse II

E|----------4p0----------------------4p0-------------|
B|--------------5p0-4h5p0----------------5p0-4h5p0---|
G|---------------------------------------------------|   x2
D|---------------------------------------------------|
A|---2-2-2--------------------7-7-7------------------|
D|---2-2-2--------------------7-7-7------------------|


E|-------------4p0-------------------------4p0-------------|
B|-----------------5p0-4h5p0-------------------5p0-4h5p0---|
G|---------------------------------------------------------|   x2
D|---------------------------------------------------------|
A|---2-2-2--2------------------7-7-7--7--------------------|
D|---2-2-2--2------------------7-7-7--7--------------------|


Chorus

E|------------------|
B|------------------|
G|------------------|   x2
D|------------------|
A|---2--11--9--7----|
D|---2--11--9--7----|


Bridge

E|-------------------------------------------|
B|-------------------------------------------|
G|-------------------------------------------|   x3
D|-------------------------------------------|
A|---x-x-7-7-x-x-7-7-x-x-11-11-x-x-14-13-9---|
D|---x-x-7-7-x-x-7-7-x-x-11-11-x-x-14-13-9---|


E|-------------------------------------------|
B|-------------------------------------------|
G|-------------------------------------------|   x1
D|-------------------------------------------|
A|---7-7-x-x-7-7-x-x-4-4-x-x-4-6-7-----------|
D|---7-7-x-x-7-7-x-x-4-4-x-x-4-6-7-----------|


Lead

E|---12p0--------------12p0------------------|
B|--------12p0-12h14p0------12p0-12h14p0-----|
G|-------------------------------------------|
D|-------------------------------------------|
A|-------------------------------------------|
D|-------------------------------------------|

E|---12p0--------------12p0------12h14p0-----|
B|--------12p0-12h14p0------12p0-------------|
G|-------------------------------------------|
D|-------------------------------------------|
A|-------------------------------------------|
D|-------------------------------------------|


Rhythm (During Solo)

E|-------------|
B|-------------|
G|-------------|   x2
D|-------------|
A|---2--7------|
D|---2--7------|


Chorus III (With Solo)

E|---------------------|
B|---------------------|
G|---------------------|   x4
D|---------------------|
A|---2-2-2-2-6-6-7-7---|
D|---2-2-2-2-6-6-7-7---|


End Riff (End on 7)

E|-------------------------------------------|
B|-------------------------------------------|
G|-------------------------------------------|   x2
D|-------------------------------------------|
A|---x-x-7-7-x-x-7-7-x-x-11-11-x-x-14-13-9---|
D|---x-x-7-7-x-x-7-7-x-x-11-11-x-x-14-13-9---|
Suggest correction
Give kudos to tab author, rate the tab!
1 2 3 4 5
comments
print report bad tab
guest
You may want to rate the tab now too:
select rating
Wanna post a correction for this tab? Suggest correction