Oops, an error
Loading. Please wait.

The Curse - Angels Of Death Tab

49 views 1 this week
no commentswrite comment
1 2 3 4 5
3 more votes to show rating
add to favorites
launch autoscroll
font size
0
reset
how to read this tab
guitar tuner
Autoscroll
slow
fast
+/-
esc
set tempo
stop
Help us to improve Ultimate-Guitar.com Take our survey!
×
Author
Difficulty
Tuning
intermediate
C G C F A D
*=Harmonic Pitch
h=hammer on
b=bend
x=dead note
X=palm mute
T=Finger Tapping

Verse

D|---------------------------------------------------------------------------|
A|---------------------------------------------------------------------------|
F|---------------------------------------------------------------------------|
C|--------------3--------5--------6--------8--------10----------11--------12-|
G|--------------3--------5--------6--------8--------10----------11--------12-|
C|--0--0--0--0--3--------5--------6--------8--------10----------11--------12-|

D|--------------|
A|--------------|
F|--------------|
C|--------------|
G|--------------|
C|--0--0--0--0--|

PRE-CHOURS

D|--------------------------------------------------|
A|--------------------------------------------------|
F|--------------------------------------------------|
C|--1--------1--------1--------1--------1-----------|
G|--1--------1--------1--------1--------1-----------|
C|--1--------1--------1--------1--------1--------0--|(dive in with tremolo)
             x        x        x        x

CHOURS

D|----------------------------------------------------------|
A|----------------------------------------------------------|
F|-----5-----7-----9------12-----9-----7-----5-----3-----5--|
C|----X-----X-----X------X------X-----X-----X-----X-----X---|
G|--3-----5-----7-----10------7-----5-----3-----1-----3-----|
C|----------------------------------------------------------|

D|-------------------------------------------------------------------|
A|-------------------------------------------------------------------|
F|-------------------------------------------------------------------|
C|--5-5-5-5-5-5-5-5---------------------------------3-3-3-3-3-3-3-3--|
G|--3-3-3-3-3-3-3-3-6-6-6-6-6-6-6-6-1-111-1-1-1-1-1-1-1-1-1-1-1-1-1--|
C|------------------6-6-6-6-6-6-6-6-1-111-1-1-1-1-1------------------|
    x x x   x x   x x   x x   x   x   xxx   x x   x x   x x   x   x


D|--------------------------------------------------------------|
A|--------------------------------------------------------------|
F|----------------------------------12-12/13-10-7-5-----///9----|
C|--5-5-5-5-5-5-5-5------------------x--x--x-x--x-x-----///x----|
G|--3-3-3-3-3-3-3-3-6-6-6-6-6-6-6-6-10-10/11-8--5-3-----///7----|
C|------------------6-6-6-6-6-6-6-6-----------------------------|
    x x x   x x   x x   x x   x   x

SOLO BULID UP

D|----------------------------------------------------------------------------|
A|----------------------------------------------------------------------------|
F|----------------------------------------------------------------------------|
C|----------------------------------------------------------------------------|
G|--3--3--3--3--3--3--3--3--3--5--5--5--5--5--5--5--5--3--3--3--3--4--4--4--5-|
C|----------------------------------------------------------------------------|
    xxxxxxxxxxxxxxxxxxxxxxxxxxxxxxxxxxxxxxxxxxxxxxxxxxxxxxxxxxxxxxxxxxxxxx

solo

D|----------|
A|------15b-|
F|--14b-----|
C|----------|
G|----------|
C|----------|


                                      T  T    T  T  T   T   T    T   T T  T
D|--12--15--12--15--12--13--14--15--17---------------------------------------|
A|------------------------------------9--10--12--9--10--12--9--10--12--9--10-|
F|---------------------------------------------------------------------------|
C|---------------------------------------------------------------------------|
G|---------------------------------------------------------------------------|
C|---------------------------------------------------------------------------|

D|--------------12--15h-19h-15h-12----------------------12h-15h-19h-15h-12h---|
A|----------12----------------------12--------------13--------------------13--|
F|------12------------------------------12------14------------------------14--|h
C|--14--------------------------------------14--------------------------------|
G|----------------------------------------------------------------------------|
C|----------------------------------------------------------------------------|
  sweet picking

D|------|
A|------|
F|------|
C|--5*--
G|------|
C|------|

outro

D|-----------|
A|-----------|
F|-----------|
C|--0--------|
G|--0--------|
D|--0--------|


Song Order

Verse X4

PRE-CHOURS X1

CHOURS X1

Verse X4

Pre-Chours X1

CHOURS X1

SOLO BULID UP X5

SOLO X1

VERSE X4

CHOURS X3

OUTRO X1
Suggest correction
Give kudos to tab author, rate the tab!
1 2 3 4 5
comments
print report bad tab
guest
You may want to rate the tab now too:
select rating
Wanna post a correction for this tab? Suggest correction