Oops, an error
Loading. Please wait.

The Darian Band - The Way Its Suposed To Be Tab

89 views 1 this week
no commentswrite comment
1 2 3 4 5
excellent!
x 1
add to favorites
launch autoscroll
font size
0
reset
how to read this tab
guitar tuner
Tab Pro tools
  • play this tab
  • loop segment
  • change instrument
  • show fretboard
  • metronome
Autoscroll
slow
fast
+/-
esc
set tempo
stop
Contributor
Difficulty
intermediate
Title: The Way It's Supposed To Be
Artist: The Darian Band
Tabbed by:Darian
Email:scotty__13@hotmail.com
Tuning:Standard(EADGBe)

Intro

e|---------------------------|
B|---------------------------|
G|---------------------------|
D|---------------------------|X4
A|---2--2--2--2--3--3--5--7--|
E|-0--0--0--0--0--0--0--0----|
PM x xx xx xx xx xx xx xx x

e|-------------------------------------|
B|-------------------------------------|
G|-------------------------------------|
D|-------------------------------------|X2
A|-2-2-2-2-2-2-2-2--3-3-3-3--5-5--7-7--|
E|-0-0-0-0-0-0-0-0--0-0-0-0--0-0--0-0--|
PM x x x x x x x x  x x x x  x x  x x

Bridge

e|----------------------------|
B|----------------------------|
G|-4-4--4-4--4--5-5--5-7--9---|
D|-4-4--4-4--4--5-5--5-7--9---|X2
A|-2-2--2-2--2--3-3--3-5--7---|
E|----------------------------|

Verse

e|-----------------------------------------------------|
B|-----------------------------------------------------|
G|------------------9-9-9-9--7-7-7-7--4-4-4-4-4-4-4-4--|
D|-9-9-9-9-9-9-9-9--9-9-9-9--7-7-7-7--4-4-4-4-4-4-4-4--|X4
A|-9-9-9-9-9-9-9-9--7-7-7-7--5-5-5-5--2-2-2-2-2-2-2-2--|
E|-7-7-7-7-7-7-7-7-------------------------------------|
PM x x x x x x x    x x x    x x x    x x x x x x x  

e|-------------------------------------|
B|-------------------------------------|
G|-------------9--9-7--7-4-4--4-4-4-4--|
D|-9-9-X-X-X-X-9--9-7--7-4-4--4-4-4-4--|X2
A|-9-9-X-X-X-X-7--7-5--5-2-2--2-2-2-2--|
E|-7-7-X-X-X-X-------------------------|

Chorus

e|---------------------------------------|
B|---------------------------------------|
G|-4----7----4----7----------------------|
D|-4----7----4----7----4----7----4----7--|X2
A|-2----5----2----5----4----7----4----7--|
E|---------------------2----5----2----5--|

e|-----------------|
B|-----------------|
G|-4--9------------|
D|-4--9--4--9~-----|
A|-2--7--4--9~-----|
E|-------2--7~-----|

Intro

Bridge

Verse

Chorus

Bridge

Verse

Interlude

e|---------------------------------|
B|---------------------------------|
G|----3-------6--------2--------9--|
D|-----4-------7------3-------10---|X1
A|------4-------7----3------10-----|
E|-2-------5-------1------8--------|

e|-----------------------------------|
B|-----------------------------------|
G|-6-6-6-6-6-6-6-6--3-3-3-3-3-3-3-3--|
D|-7-7-7-7-7-7-7-7--4-4-4-4-4-4-4-4--|X1
A|-7-7-7-7-7-7-7-7--4-4-4-4-4-4-4-4--|
E|-5-5-5-5-5-5-5-5--2-2-2-2-2-2-2-2--|

e|---------------------------------|
B|---------------------------------|
G|----3-------6--------2--------9--|
D|-----4-------7------3-------10---|X1
A|------4-------7----3------10-----|
E|-2-------5-------1------8--------|

e|-----------------------------------|
B|-----------------------------------|
G|-6-6-6-6-6-6-6-6--3-3-3-3-3-3-3-3--|
D|-7-7-7-7-7-7-7-7--4-4-4-4-4-4-4-4--|X2
A|-7-7-7-7-7-7-7-7--4-4-4-4-4-4-4-4--|
E|-5-5-5-5-5-5-5-5--2-2-2-2-2-2-2-2--|

Chorus

Outro

e|------------------------------|
B|------------------------------|
G|-4-4-4-4-4-4-4-4--5----7--9---|
D|-4-4-4-4-4-4-4-4--5----7--9---|X4
A|-2-2-2-2-2-2-2-2--3----5--7---|
E|------------------------------|
PM x x x x x x x x 

e|------------------------------|
B|------------------------------|
G|-4-4-4-4-4-4-4-4--5----9--7---|
D|-4-4-4-4-4-4-4-4--5----9--7---|X2
A|-2-2-2-2-2-2-2-2--3----7--5---|
E|------------------------------|
PM x x x x x x x x

e|-----------------------------------------------------------|
B|-----------------------------------------------------------|
G|-9--9---5--5---7--7---4--4---9--9---5--5---7--7------7-4~--|
D|-9--9---5--5---7--7---4--4---9--9---5--5---7--7--7-4-7-4~--|
A|-7--7---3--3---5--5---2--2---7--7---3--3---5--5--7-4-5-2~--|
E|-------------------------------------------------5-2-------|

| /  slide up
| \  slide down
| h  hammer-on
| p  pull-off
| ~  vibrato
|(5) harmonic
| X  mute note
| b  bend note
| PM palm mute
=============================================================================
comments
We did not receive enough feedback on this tab! Please rate:
print report bad tab
1 2 3 4 5
I want to post or [tab]
guest
You may want to rate the tab now too:
select rating
Please do not post tabs as comments. Select "correction" instead!