Oops, an error
Loading. Please wait.

The Dawn Of Olympus - Save Your Breath Tab

131 views 1 this week
no commentswrite comment
1 2 3 4 5
please rate
add to favorites
launch autoscroll
font size
0
reset
how to read this tab
guitar tuner
Autoscroll
slow
fast
+/-
esc
set tempo
stop
Help us to improve Ultimate-Guitar.com Take our survey!
×
Author
Difficulty
Tuning
intermediate
C G C F A D
THE DAWN OF OLYMPUS- SAVE YOUR BREATH

Gtr I (C G C F A D) - 'Untitled'

 4/4
  
INTRO- ALL NOTES TREMELO PICKED

  TP
  E  E E E  E E E E E  E E  E E  E E  E E E  E E E E E  E E  E E  E E E
|--------------------------------------------------------------------------|
|--------------------------------------------------------------------------|
|--------------------------------------------------------------------------|
|----------10-8-7---7-----------------------10-8-7---7--------------0-0----|
|---10-8-7------------10-8-10-7------10-8-7------------10-8-10-7----0-0----|
|-8---------------0-------------10-8---------------0-------------10-0-0----|



VERSE


  PM|   PM|   PM    PM  PM
  E E E E E E E E E E E E E E  E E E E E E E E E E E E E E E
|------------------------------------------------------------|
|------------------------------------------------------------|
|--------------------------------7h8p7---------3h5p3---------|
|-----7--------------------------------8-7S5S7-------5-3S2S3-|
|-----------8---7h8---5---4-8s11-----------------------------|
|-0-0---0-0---0-----0---0------------------------------------|


  PM|   PM|   PM      PM  PM
  E E E E E E E E   E E E E E E  E
|-----------------|-----------------|
|-----------------|-----------------|
|-----------------|-----------------|
|-----7-----------|-----------------|
|-----------8---7h|=8---5---4-8s11--|
|-0-0---0-0---0---|---0---0---------|


      PM|             PM|
  E E E E  E  E  E  E E E E E E E
|------------------------------------|
|------------------------------------|
|------------------------------------|
|---------10h12----------------------|
|-7h8-----------10h12-----5h8--------|
|-----0-0-------------0-0-----5h8----|



CLEAN SINGING BRIDGE


  PM|                       PM|
  E E E E E E E E E E E E E E E E E E E E E E E E E E   E  E E E E
|---------------------------------------------------------------------|
|---------------------------------------------------------------------|
|---------------------------------------------------------------------|
|-----7-------------------------7--------------------------------3----|
|-------8-7h8-5-5-5-5-5-5-5-------8-7h8-5-5-5-5-5-5-5--10-12-7-8-3----|
|-0-0---------0-0-0-0-0-0-0-0-0---------0-0-0-0-0-0-0---8--8-5-5-3----|


  PM|                         PM|
  E E E E E E E E   E E E E E E E E   E E E E E E E E   E E  E  E E E E
|-----------------|-----------------|-----------------|------------------|
|-----------------|-----------------|-----------------|------------------|
|-----------------|-----------------|-----------------|------------------|
|-----7-----------|---------------7-|-----------------|---------------3--|
|-------8-7h8-5-5-|-5-5-5-5-5-------|-8-7h8-5-5-5-5-5-|-5-5-10-12-7-8-3--|
|-0-0---------0-0-|-0-0-0-0-0-0-0---|-------0-0-0-0-0-|-0-0--8--8-5-5-3--|


 

BRIDGE


 PM|         PM                PM--|         PM|
  e e E E E E T T T  T  T  T  T T   T T T T T T T T T T T T T T T T T
|---------------------------------|--------------------------------------|
|---------------------------------|--------------------------------------|
|---------------------------------|--------------------------------------|
|-0-0-8-3-----------10h12---------|--------------------------------------|
|-0-0-8-3-7h8---7h8-------10h12---|---5h8---------5h8---------3h5--------|
|-0-0-8-3-----0-----------------0-|-0-----5h8-0-0-----5h8-3h5-----3h5----|


      PM|                 PM|         PM
  T T T T T T  T  T  T  T T T T T T T T T T T T T T T T T T
|--------------------------------------------------------------|
|--------------------------------------------------------------|
|--------------------------------------------------------------|
|-------------10h12--------------------------------------------|
|-7h8-----7h8-------10h12-----5h8-------5h8---------3h5--------|
|-----0-0-----------------0-0-----5h8-0-----5h8-3h5-----3h5----|



BREAKDOWN- LISTEN TO THE TRACK FOR RHYTHM OF NOTES


  T Q  Q    Q  Q  Q    Q  S  S  S   Q
|----------------------------------------|
|---------------------17-17-17-17--------|
|---------------------21-21-21-21--------|
|----------------------------------------|
|-1-5--1----------------------------0----|
|-0-0--0----1--1--1-----------------1----|




CLOSING BRIDGE, RHYTHM GUITAR BEHIND ADAMS RIFF. 


      PM TP     PM TP          PM TP     PM TP
  T   T  T T T  T  T  T T  T   T  T T T  T  T  T T  T
|--------------------------------------------------------|
|--------------------------------------------------------|
|---------------------------------------------------2----|
|---------------------------------------------------0----|
|-5-----10-8-7----12-10-8--5-----10-8-7----12-10-8--0----|
|-0---8--------10----------0---8--------10----------0----|



CLEAN OUTRO, ALL DOWN PICKED


  T T T T T T T T T T T T T T T T T T T T T T T T  T  T  T  T  T  T  T  T
|----------------------------------------------------------------------------|
|----------------------------------------------------------------------------|
|----------------------------------------------------------------------------|
|----------------------------------------------------------------------------|
|-8-8-8-8-8-8-8-8-8-8-8-8-8-8-8-8-5-5-5-5-5-5-5-5--8--8--8--8--8--8--8--8----|
|-0-0-0-0-0-0-0-0-0-0-0-0-0-0-0-0-8-8-8-8-8-8-8-8-10-10-10-10-10-10-10-10----|


  T T T T T T T T T T T T T T T T T T T T T T T T  T  T  T  T  T  T  T  T
|----------------------------------------------------------------------------|
|----------------------------------------------------------------------------|
|----------------------------------------------------------------------------|
|----------------------------------------------------------------------------|
|-8-8-8-8-8-8-8-8-8-8-8-8-8-8-8-8-5-5-5-5-5-5-5-5--8--8--8--8--8--8--8--8----|
|-0-0-0-0-0-0-0-0-0-0-0-0-0-0-0-0-8-8-8-8-8-8-8-8-10-10-10-10-10-10-10-10----|




FINALE, "DUN DAH" ON EVERY 1ST BEAT.  AGAIN, LISTEN TO TRACK.


  PM---------------------------|
  T T       T T       T T    T T     T
|-----------------------------------------|
|-----------------------------------------|
|------------------------------------0----|
|-----------0-0----------------------0----|
|-0-0-------0-0-------0-0----0-0-----0----|
|-0-0-------0-0-------0-0----0-0-----0----|



Tablature Legend
----------------
 h   - hammer-on
 p   - pull-off
 /\  - slide into or out of (from/to)
 TP  - trem. picking
 PM  - palm muting

Suggest correction
Give kudos to tab author, rate the tab!
1 2 3 4 5
comments
print report bad tab
guest
You may want to rate the tab now too:
select rating
Wanna post a correction for this tab? Suggest correction