Oops, an error
Loading. Please wait.

The Days Before - Home Bass Tab

42 views 1 this week
no commentswrite comment
1 2 3 4 5
please rate
add to favorites
launch autoscroll
font size
0
reset
guitar tuner
Autoscroll
slow
fast
+/-
esc
set tempo
stop
Help us to improve Ultimate-Guitar.com Take our survey!
×
Author
Difficulty
intermediate
This is my band's original song, and I thought I'd put the tab up. Guitar will be up soon!!

www.myspace.com/thedaysbefore
^that's the song, and the rhythm is there for you to get.

Intro
                                                      2nd time only
G|-----------------|----4------------|-----------------|-----------------|
D|----4-----2-----4|--6-------4-----2|-----------------|-----------------|
A|--5-----4-----5--|7-------5-----4--|--5-4------------|-----------------|X2
E|7-----5-----7----|------7-----5----|7-----5-4-0------|7----------------|

Verse (NOTE: 12 are 12s, not 1, 2s)

G|-----------------|-----------------|-----------------|-----------------|
D|-----------------|-----------------|-----------------|-----------------|
A|-----99-9-1212-12|99-9------1212-12|77-7-00-0--------|-----------------|X4
E|77-7-------------|-----77-7--------|-----------------|-----------------|

Chorus (NOTE: The 7 on E is played the third time only)

G|-----------------|-----------------|-----------------|-----------------|
D|----4-44-444-75h4|0-75h4-0-75h4----|-----------------|-----------------|
A|--5--------------|-----------------|--4-7-77-777-75h4|0-75h4-0-4-0-----|X3
E|7----------------|-----------------|5----------------|----------------7|

Verse (NOTE: 12 are 12s, not 1, 2s)

G|-----------------|-----------------|-----------------|-----------------|
D|-----------------|-----------------|-----------------|-----------------|
A|-----99-9-1212-12|99-9------1212-12|77-7-00-0--------|-----------------|X4
E|77-7-------------|-----77-7--------|-----------------|-----------------|

Chorus

G|-----------------|-----------------|-----------------|-----------------|
D|----4-44-444-75h4|0-75h4-0-75h4----|-----------------|-----------------|
A|--5--------------|-----------------|--4-7-77-777-75h4|0-75h4-0-4-0-----|X3
E|7----------------|-----------------|5----------------|-----------------|

Bridge

G|-----------------|-----------------|
D|-----------------|99-9-99-9--------|
A|-----------------|-----------------|X1
E|77-7-77-7--------|-----------------|

Guitar Solo

G|-----------------|-----------------|-----------------|-----------------|
D|-----------------|-----------------|-----------------|-----------------|
A|-----------------|-----------------|-----------------|-----------------|X3
E|777-77-7-77------|555-55-5-55------|222-22-2-22------|333-33-3-33------|

G|-----------------|-----------------|
D|-----------------|-----------------|
A|-----------------|-----------------|X2
E|7--7-------------|0--0-------------|

Chorus

G|-----------------|-----------------|-----------------|-----------------|
D|----4-44-444-75h4|0-75h4-0-75h4----|-----------------|-----------------|
A|--5--------------|-----------------|--4-7-77-777-75h4|0-75h4-0-4-0-----|
E|7----------------|-----------------|5----------------|-----------------|

G|-----------------|-----------------|-----------------|-----------------|
D|----4-44-444-75h4|0-75h4-0-75h4----|-----------------|-----------------|
A|--5--------------|-----------------|--4-7-77-777-75h4|0-4-0-4-0-4------|
E|7----------------|-----------------|5----------------|-----------------|

G|-----------------|-----------------|-----------------|-----------------|
D|----4-44-444-75h4|0-75h4-0-75h4----|-----------------|-----------------|
A|--5--------------|-----------------|--4-7-77-777-75h4|0-75h4-0-4-0-----|
E|7----------------|-----------------|5----------------|-----------------|

Outro

G|-----------------|
D|-----------------|
A|-----------------|
E|55555555-7-------|

Since I wrote this song, I know it is 100%, but I doubt it will get a lot of views. Oh 
though. Enjoy!
Suggest correction
Give kudos to tab author, rate the tab!
1 2 3 4 5
comments
print report bad tab
guest
You may want to rate the tab now too:
select rating
Wanna post a correction for this tab? Suggest correction