Oops, an error
Loading. Please wait.

The Days Before - Sanctity Tab

49 views 1 this week
no commentswrite comment
1 2 3 4 5
please rate
add to favorites
launch autoscroll
font size
0
reset
how to read this tab
guitar tuner
Autoscroll
slow
fast
+/-
esc
set tempo
stop
Help us to improve Ultimate-Guitar.com Take our survey!
×
Author
Difficulty
Tuning
novice
D A D G B E
This is the guitar tab to my band's second song called Sanctity.

www.myspace.com/thedaysbefore
^the timing and rhythm is in there

Key
r=let note ring
p=pull off
h=hammer on
/=slide


Intro(Repeat until 0:51, then hit the open note)

e|---------------------------------------------------------------------------|
B|---------------------------------------------------------------------------|
G|----4p0-2p0----------------------------------------------------------------|
D|2p0---------4p0---------0--------------------------------------------------|
A|------------------------0r-------------------------------------------------|
D|------------------------0--------------------------------------------------|

Verse

e|---------------------------------------------------------------------------|
B|---------------------------------------------------------------------------|
G|---------------------------------------------------------------------------|
D|22-22-22--55-55-55--00-00-00-22-22-----------------------------------------|
A|22-22-22--55-55-55--00-00-00-22-22-----------------------------------------|X4
D|22-22-22--55-55-55--00-00-00-22-22-5-3-------------------------------------|

Chorus(NOTE: the 10 are tens, not 1,0)

e|---------------------------------------------------------------------------|
B|---------------------------------------------------------------------------|
G|---------------------------------------------------------------------------|
D|2--2--5--5--10--10--7--7--2------------------------------------------------|
A|2r-2/-5r-5/-10r-10/-7r-7/-2------------------------------------------------|X2
D|2--2--5--5--10--10--7--7--2------------------------------------------------|

e|---------------------------------------------------------------------------|
B|---------------------------------------------------------------------------|
G|---------------------------------------------------------------------------|
D|2--2--5--5--10--10--7--7--3------------------------------------------------|
A|2r-2/-5r-5/-10r-10/-7r-7/-3r-----------------------------------------------|X1
D|2--2--5--5--10--10--7--7--3------------------------------------------------|

Bridge


e|---------------------------------------------------------------------------|
B|---------------------------------------------------------------------------|
G|--------2p0-2p0-3p0-3p0---------2p0-2p0-5p0-5p0----------------------------|
D|00-0-00-----------------00-0-00--------------------------------------------|
A|00-0-00-----------------00-0-00--------------------------------------------|X6
D|00-0-00-----------------00-0-00--------------------------------------------|


e|---------------------------------------------------------------------------|
B|---------------------------------------------------------------------------|
G|---------------------------------------------------------------------------|
D|0------0------0------0-----------------------------------------------------|
A|0r-----0r-----0r-----0r----------------------------------------------------|X1
D|0------0------0------0-----------------------------------------------------|

Verse

e|---------------------------------------------------------------------------|
B|---------------------------------------------------------------------------|
G|---------------------------------------------------------------------------|
D|22-22-22--55-55-55--00-00-00-22-22-----------------------------------------|
A|22-22-22--55-55-55--00-00-00-22-22-----------------------------------------|X4
D|22-22-22--55-55-55--00-00-00-22-22-5-3-------------------------------------|

Chorus(NOTE: On the third time do not play the last 2 bar chord, go right into the Outro)

e|---------------------------------------------------------------------------|
B|---------------------------------------------------------------------------|
G|---------------------------------------------------------------------------|
D|2--2--5--5--10--10--7--7--2------------------------------------------------|
A|2r-2/-5r-5/-10r-10/-7r-7/-2------------------------------------------------|X3
D|2--2--5--5--10--10--7--7--2------------------------------------------------|

Outro(Fade until the end, then hit let the 18 on B ring)

e|---------------------------------------------------------------------------|
B|---------------------------------------------------------------------------|
G|18p0-18p0-18p0-18p0-18p0-18p0-18p0-18p0------------------------------------|
D|---------------------------------------------------------------------------|
A|---------------------------------------------------------------------------|
D|---------------------------------------------------------------------------|


e|---------------------------------------------------------------------------|
B|18p0-18p0-18p0-18p0-18p0-18p0-18p0-18p0---------------18r------------------|
G|---------------------------------------------------------------------------|
D|---------------------------------------------------------------------------|
A|---------------------------------------------------------------------------|
D|---------------------------------------------------------------------------|



This is a fairly easy tab, and again since I wrote it, I know it is 100% correct.
So anyway, enjoy!!!

Suggest correction
What's this?
You can suggest a correction to this tab. Community and Mods will review your correction and vote to approve or reject it.
comments
We did not receive enough feedback on this tab! Please rate:
print report bad tab
1 2 3 4 5
guest
You may want to rate the tab now too:
select rating
Please do not post tabs as comments. Select "correction" instead!