Oops, an error
Loading. Please wait.

The Ddms - Vibrato Bass Tab

83 views 1 this week
no commentswrite comment
1 2 3 4 5
2 more votes to show rating
add to favorites
launch autoscroll
font size
0
reset
guitar tuner
Autoscroll
slow
fast
+/-
esc
set tempo
stop
Help us to improve Ultimate-Guitar.com Take our survey!
×
Difficulty
novice
intro 6x

g---------------------------------------------------------------------------|
b---------------------------------------------------------------------------|
a-----3-3-3-----------------------------------------------------------------|
e--------------4-4-4-----3-3-3----------------------------------------------|


verse 4x


g---------------------------------------------------------------------------|
b---------------------------------------------------------------------------|
a---3-3-0-------------------------------------------------------------------|
e-----------3-3-0---5-5-0---1-1-0-------------------------------------------|

back to intro (8x)


g---------------------------------------------------------------------------|
b---------------------------------------------------------------------------|
a-----3-3-3-----------------------------------------------------------------|
e--------------4-4-4-----3-3-3----------------------------------------------|


verse 4x


g---------------------------------------------------------------------------|
b---------------------------------------------------------------------------|
a---3-3-0-------------------------------------------------------------------|
e-----------3-3-0---5-5-0---1-1-0-------------------------------------------|

outro


g---------------------------------------------------------------------------|
b---------------------------------------------------------------------------|
a------3-3-3----------------------------------------------------------------|
e---------------4-4-4-----3--3--0~------------------------------------------|

http://www.myspace.com/h8w8nforwhat
Suggest correction
Give kudos to tab author, rate the tab!
1 2 3 4 5
comments
print report bad tab
guest
You may want to rate the tab now too:
select rating
Wanna post a correction for this tab? Suggest correction