Oops, an error
Loading. Please wait.

The Dead Are Restless - Voracious Tab

69 views 1 this week
no commentswrite comment
1 2 3 4 5
please rate
add to favorites
launch autoscroll
font size
0
reset
how to read this tab
guitar tuner
Tab Pro tools
  • play this tab
  • loop segment
  • change instrument
  • show fretboard
  • metronome
×
Best way to learn
"The Dead Are Restless - Voracious"
Autoscroll
slow
fast
+/-
esc
set tempo
stop
Contributor
Tuning:
C# Standard


Intro:
*pick slide*

Intro Riff:
|----------------------------------------|--------------------------------|
|----------------------------------------|--------------------------------|
|----------------------------------------|--------------------------------|
|----------------------------------------|--------------------------------|
|-9p10---9p10---9p10-9p10---9p10---9p10--|7p9---7p9---7p9-7p9---7p9---7p9-|
|------0------0-----------0------0-------|----0-----0--------0-----0------|

|---------------------------------|---------------------------|
|---------------------------------|---------------------------|
|---------------------------------|-------*Speed pick this*---|   X2
|---------------------------------|---------------------------|
|-6p7---6p7---6p7-6p7---6p7---6p7-|--9999--------88888--------|
|-----0-----0---------0-----0-----|-------77777--------66666--|


Mosh Riff:
|-----------------------------------------------------------------------|
|-----------------------------------------------------------------------|
|----------*speed pick and palm mute throughout*------------------------| X2
|-----------------------------------------------------------------------|
|-----------------------------------------------------------------------|
|-8750875087508750-7530753075307530-8750875087508750--75307530-53205320-|

Chorus riff 1:
|-------------------------------------------------------|
|-------------------------------------------------------|
|-----7/9------9/10---10\8------8\4---------------------|
|-----x-x------x-x-----x-x------x-x---------------------| X2
|-----5/7------7/8-----8\6------6\2-----2h3p2-----------|
|-0000----0000-----000-----0000-----0000------000-2h3p2-|

Chorus Riff 2:
|---------------------------------|
|---------------------------------|
|-----5\4-----4/8-----8/9-----5\4-|
|---------------------------------|
|-----3\2-----2/6-----6/7-----3\2-|
|-0000----0000----000-----0000----|

|----------------------------------|
|----------------------------------|
|---------------------------8-9-11-|
|--------------------7-9-10--------| (we play this whole riff twice on 
|-------------7-9-10---------------|  recording but cut it out since then)
|-0000-7-8-11----------------------|

Bride Riff 1:
|---------------------------------------------------------|
|---------------------------------------------------------|
|----------------------------------------------------9-8~-|
|------------------------488------------------------------|X2
|2---2---2-454-2---2---2-266-2---2---2-454-2---2---2-7-6~-|
|000000000-232-000000000-----000000000-232-000000000------|

Bridge riff 3:
|-----------------------------------------------------------------------|
|-----------------------------------------------------------------------|
|-------------------------------------------------------------------9-8-|
|--------------8~-------------------------------------------------------|X2
|2---2---9-8-7----2---2----------------2---2----------9-7-6-2---2---7-6-|
|00000000---------00000000-7-8-11-8-7~-00000000-8-7-5-------00000000----|

___________________________________________________________________________
Order:
Intro Riff
Mosh Riff
Chorus 1
Chorus 2
Intro Riff
Mosh Riff
Bridge 1
Bridge 2
Intro RIff
Mosh Riff
CHorus 1
CHorus 2

comments
We did not receive enough feedback on this tab! Please rate:
print report bad tab
1 2 3 4 5
I want to post or [tab]
guest
You may want to rate the tab now too:
select rating
Please do not post tabs as comments. Select "correction" instead!