Oops, an error
Loading. Please wait.

The Dead Society - Drop Dead Holmes Tab

11 views 1 this week
no commentswrite comment
1 2 3 4 5
3 more votes to show rating
add to favorites
launch autoscroll
font size
0
reset
how to read this tab
guitar tuner
Autoscroll
slow
fast
+/-
esc
set tempo
stop
Help us to improve Ultimate-Guitar.com Take our survey!
×
Author
Difficulty
novice
e-------------------------------------------|
B-4-4-3-1--6-6-6-6-6-6-6-6------------------|
G-4-4-3-1--6-6-6-6-6-6-6-6------------------|
D-4-4-3-1--6-6-6-6-6-6-6-6------------------|
A-------------------------------------------|
E-------------------------------------------|



e------------------------------------------|
B------------------------------------------|
G-----2-3---2-3---2-3----------------------|
D-2-3----2-3---2-3---2-3-------------------|
A------------------------------------------|
E------------------------------------------|
Suggest correction
Give kudos to tab author, rate the tab!
1 2 3 4 5
comments
print report bad tab
guest
You may want to rate the tab now too:
select rating
Wanna post a correction for this tab? Suggest correction