Oops, an error
Loading. Please wait.

The Delinquents - Justine Tab

137 views 1 this week
no commentswrite comment
1 2 3 4 5
3 more votes to show rating
add to favorites
launch autoscroll
font size
0
reset
how to read this tab
guitar tuner
Autoscroll
slow
fast
+/-
esc
set tempo
stop
Help us to improve Ultimate-Guitar.com Take our survey!
×
this is brad from the dilenquents! No one knows us but i thought i wood put our tab
on the net so we get recognized! down here in ipswich.....

most effective is using distortion

Intro
|------------------------------------------------------------------------|
|------------------------------------------------------------------------|
|------------------------------------------------------------------------|
|-----6-----6-----2-----4------6-----6-----4----4------------------------| x2
|-4-4---4-4---0-0---0-0----7-7---7-7---2-2---2-2-------------------------|
|------------------------------------------------------------------------|

Main riff
|--------------------------------------------------|
|--------------------------------------------------|
|---66-6666--------------99-9999-------------------|
|---66-6666---77-7777----99-9999----99-99999-------| x2
|---44-4444---77-7777----77-7777----99-99999-------|
|-------------55-5555---------------77-77777-------|

Verse (same as main riff)
|----------------------------------------------------|
|----------------------------------------------------|
|---66-6666--------------99-9999---------------------|
|---66-6666---77-7777----99-9999----99-99999---------|  x4
|---44-4444---77-7777----77-7777----99-99999---------|
|-------------55-5555---------------77-77777---------|

Chorus
|----------------------------------------------------|
|----------------------------------------------------|
|---------------------------6666666666---------------|
|------777777----9999999----6666666666---------------|  x2
|------777777----9999999----4444444444---------------|
|------555555----7777777-----------------------------|

|-----------------------------------------------------------------------|
|-----------------------------------------------------------------------|
|----------------------------------6666666666---------------------------|
|---777777----9999999----222222----6666666666---7777777---9999999-------|  
|---777777----9999999----222222----4444444444---7777777---9999999-------|
|---555555----7777777----000000-----------------5555555---7777777-------|

Interlude (palm muted)
|------------------------------------------------------------------------|
|------------------------------------------------------------------------|
|------------------------------------------------------------------------|
|-----6-----6-----4-----4------4-----4-----4-----2-----------------------| x2
|-4-4---4-4---2-2---2-2----0-0---0-0---0-0---0-0-------------------------|
|------------------------------------------------------------------------|

Song Order
Intro 
Main riff 
Verse 
Chorus
Intro
Verse
Chorus
Main riff
Interlude
Intro
Chorus
Main riff
Suggest correction
Give kudos to tab author, rate the tab!
1 2 3 4 5
comments
print report bad tab
guest
You may want to rate the tab now too:
select rating
Wanna post a correction for this tab? Suggest correction