Oops, an error
Loading. Please wait.

The Devil Who Deceived Them - Funeral Bass Tab

13 views 1 this week
no commentswrite comment
1 2 3 4 5
3 more votes to show rating
add to favorites
launch autoscroll
font size
0
reset
guitar tuner
Autoscroll
slow
fast
+/-
esc
set tempo
stop
Help us to improve Ultimate-Guitar.com Take our survey!
×
Author
Difficulty
intermediate
Funeral - The Devil Who Deceived Them | Tuning: A E A D G
robustellikoral97@yahoo.com

[Intro]

G|---------------------------------|-----------------------------|---------------------------------|
D|5--------5-------------5-----5---|------5----------------------|5--------5-------------5-----5---|
A|---------------------------------|-----------------------------|---------------------------------|
E|---3---3----2---2---2-----3-----2|2--2-----2--2-2--x--2/6------|---3---3----2---2---2-----3-----2|
A|---------------------------------|-----------------------------|---------------------------------|
staccato pick^^ 1st time,legato 2nd time          ring out^

G|----------------|------------------------|
D|------5---------|------------------------|
A|----------------|---------------8h10h12--|x2
E|2--2-----2--2-2-|------------------------|
A|----------------|-5/8h10h12--------------|

[Verse]

G|---|----------------------------------------|-----------------------------------------|
D|---|----------------------------------------|-----------------------------------------|
A|---|----------------------------------------|-----------------------------------------|
E|---|----------------------------------------|-----------------------------------------|
A|0-0|0---0-0--5--4--0-0--4--3--0-0--1--1--0-0|0---0-0--1--1--0-0--1--1--0--1-1-1-1-1-1-|
                                                                       triplets ^^^

G|---------------------|--------------------------|---------------------|-----------------------------|
D|---------------------|--------------------------|---------------------|-----------------------------|
A|---------------------|--------------------------|--------------8h10h12|-x--x---8/10--10--13-12------|
E|0---x--0-0-0--x-x-x-0|-x-x-0--x--0-0-0--0--3--2-|---------------------|------------------------13-10|
A|---------------------|--------------------------|-5/8h10h12-----------|-----------------------------|

[2-Step]

G|-------------------|--------------------------------|-------------------|------------------------------|
D|-------------------|--------------------------------|-------------------|------------------------------|
A|-------------------|--------------------------------|-------------------|------------------------------|x2
E|-------------------|--------------------------------|12h13-13--12h13-12-|1-1-1-1--1--1--1--------------|
A|12h13-13--12h13-12-|1-1-1-1--1--1--1---1-1-1---1--1-|-------------------|------------------0-0-0-4--0-3|

[Open Riff]

G|---------------|---------------|-----------------------|---------------------|
D|---------------|---------------|-----------------------|---------------------|
A|---------------|---------------|-----------------------|---------------------|
E|6-6-6-6-6-6-6-6|5-5-5-5-8-8-8-8|-----------------------|------------0-0-0-0--|
A|---------------|---------------|13-13-13-13-13-13-13-13|12-12-12-12----------|


G|---------------|---------------|---------------|-------------------|
D|---------------|---------------|---------------|-------------------|
A|---------------|---------------|---------------|-------------------|
E|---------------|--------0-0-0-0|6-6-6-6-6-6-6-6|8-8-8-8-10-10-10-10|
A|9-9-9-9-9-9-9-9|7-7-7-7--------|---------------|-------------------|


G|-----------------------|--------------------|
D|-----------------------|--------------------|
A|-----------------------|--------------------|
E|11-11-11-11-11-11-11-11|10-10-10-10-0-0-0-0-|
A|-----------------------|--------------------|

[Hook]

G|----------------------|--------------------------|-------------------------|
D|----------------------|--------------------------|-------------------------|
A|----------------------|--------------------------|-------------------------|
E|----------------------|--------------------------|-------------------------|
A|5h6--5--5--x-3--x-2--2|-5h6--5--5--x-3--x-2--x-1-|5h6--5--5--x-3--x-2------|



G|----------------------------|----------------------|-------------------------|
D|----------------------------|----------------------|-------------------------|
A|----------------------------|----------------------|-------------------------|
E|----------------------------|----------------------|-------------------------|
A|x-1-1-1---1-1---x-1-1-1--12\|5h6--5--5--x-3--x-2--2|-5h6--5--5--x-3--x-2/12\2|



G|-------------------------------------------|-------------------------------|
D|-------------------------------------------|-------------------------------|
A|-------------------------------------------|-------------------------------|
E|-------------------------------------------|-0-----------------------------|
A|5h6--5--5--x-3--x-2----1--1--1--1--2b--1--1|-------------------------------|

[Build-Up]

G|--------------------------|---------------------------|------------------|----------------------------|
D|--------------------------|---------------------------|------------------|----------------------------|
A|--------------------------|---------------------------|------------------|----------------------------|x2
E|6---5--5---5-5--5---5-5-5-|-6---5--5--x-5-5-5-5-5-5-5-|-6---5--5---5-5--5|-6---5--5--13-13-13-13/16-16|
A|--------------------------|---------------------------|------------------|----------------------------|

[Verse 2/breakdown]

G|-------------------------------------|-------------------------------------|
D|-------------------------------------|-------------------------------------|
A|-------------------------------------|-------------------------------------|
E|-------------------------------------|---------------0---------------------|
A|x-1-1-1--1--1---1--1---1--1--1-1--1--|--1-1-1----1-------------------------|



G|----------------|-----------------|-------------|----------------|---------------------|
D|----------------|-----------------|-------------|----------------|---------------------|
A|1^2b-----3------|5----------------|-------------|1^2b-----3------|5--------3-----------|
E|------0----1--0-|---3--0--3-------|-5------7----|------0----1--0-|---3--0-----4--3--2-1|
A|----------------|-----------4-3-0-|---6b^----8b^|----------------|---------------------|



G|-----------------------------|-----------------------|-----------------------------|
D|-----------------------------|-----------------------|-----------------------------|
A|-----------------------------|-----------------------|-----------------------------|
E|1-1-1-1---1--3-1b^--1--4-1b^-|-1-1--1----0---x--x--0-|-1-1-1-1---1--3-1b^--1--4-1b^|
A|-----------------------------|-----------------------|-----------------------------|



G|-----------------|---------------------------|
D|-----------------|---------------------------|
A|-----------------|--------------8h10h12------|
E|1-1--1---1--1--1-|---------------------------|
A|-----------------|-5/8h10h12-----------------|

[2-Step]

G|-------------------|--------------------------------|-------------------|------------------------------|
D|-------------------|--------------------------------|-------------------|------------------------------|
A|-------------------|--------------------------------|-------------------|------------------------------|x2
E|-------------------|--------------------------------|12h13-13--12h13-12-|1-1-1-1--1--1--1--------------|
A|12h13-13--12h13-12-|1-1-1-1--1--1--1---1-1-1---1--1|--------------------|------------------0-0-0-4--0-3|

[Hook]

G|----------------------|--------------------------|-------------------------|
D|----------------------|--------------------------|-------------------------|
A|----------------------|--------------------------|-------------------------|
E|----------------------|--------------------------|-------------------------|
A|5h6--5--5--x-3--x-2--2|-5h6--5--5--x-3--x-2--x-1-|5h6--5--5--x-3--x-2------|



G|----------------------------|----------------------|-------------------------|
D|----------------------------|----------------------|-------------------------|
A|----------------------------|----------------------|-------------------------|
E|----------------------------|----------------------|-------------------------|
A|x-1-1-1---1-1---x-1-1-1--12\|5h6--5--5--x-3--x-2--2|-5h6--5--5--x-3--x-2/12\2|



G|-------------------------------------------|-----------------------------|
D|-------------------------------------------|-----------------------------|
A|-------------------------------------------|-----------------------------|
E|-------------------------------------------|7-----5----------------------|
A|5h6--5--5--x-3--x-2----1--1--1--1--2b--1--1|--8-7---6-5--4--3--2--1------|

[Outro/final breakdown]


G|------------------------------------------------------|
D|5--------5-------------5-----5-------5--------5-------|
A|------------------------------------------------------|
E|---3b^------2b^----------3-----2b^------3b^------2b^--|
A|------------------------------------------------------|



G|--------------------------------------------------------|
D|5--------5-------------5-----5-------5--------5---------|
A|--------------------------------------------------------|
E|---3b^------2b^----------3-----2b^------3b^------2/6--5-|
A|--------------------------------------------------------|


G|------------------------------------------------------|
D|5--------5-------------5-----5-------5--------5-------|
A|------------------------------------------------------|
E|---3b^------2b^----------3-----2b^------3b^------2b^--|
A|------------------------------------------------------|


G|------------------------------------------------------|
D|5--------5-------------5-----5-------5--------5-------|
A|------------------------------------------------------|
E|---3b^------2b^----------3-----2b^------3b^------2b^--|
A|------------------------------------------------------|



G|---------------------|-----------------------------------------|
D|---------------------|-----------------------------------------|
A|---------------------|7-----6--------7---6------7-----6--------|
E|---------------------|---0-----0-------0---0-------0-----0--3--|
A|x---x---x---x---x---x|-----------------------------------------|


G|-----------------------------------------|-----------|
D|-----------------------------------------|-----------|
A|7-----6--------7---6------7-----6--------|-----------|REPEAT UNTIL FADE OUT
E|---0-----0-------0---0-------0-----0--3--|5-----3----|
A|-----------------------------------------|--6-5---4-3|






************************************

| x   Dead note
| h   Hammer-on
| p   Pull-off
| ^   Accented note
| t   Tapping
| b   Bend
| /   Slide up
| \   Slide down


************************************
Suggest correction
Give kudos to tab author, rate the tab!
1 2 3 4 5
comments
print report bad tab
guest
You may want to rate the tab now too:
select rating
Wanna post a correction for this tab? Suggest correction