Oops, an error
Loading. Please wait.

The Difference Is Sand And Sea - Myspace Is Only Good For Girls Tab

115 views 1 this week
no commentswrite comment
1 2 3 4 5
please rate
add to favorites
launch autoscroll
font size
0
reset
how to read this tab
guitar tuner
Tab Pro tools
  • play this tab
  • loop segment
  • change instrument
  • show fretboard
  • metronome
Autoscroll
slow
fast
+/-
esc
set tempo
stop
Contributor
Guitar 1
Guitar 2

Intro (what i play)Guitar 1
c#|--------------------------------------|
g#|--------------------------------------|
 e|--------------------------------------|
 b|--------------------------------------|
f#|----888-555-888-101010-777-444-777----|
 B|000-----------------------------------|

c#|--------------------------------------|
g#|--------------------------------------|
 e|--------------------------------------|
 b|-----------------------5-7-8--------7-|
f#|-----888-555-888-5-7-8-------7-8-10---|
 B|-000----------------------------------|

c#|--------------------------------------|
g#|--------------------------------------|
 e|--------------------------------------|
 b|--------------------------------------|
f#|----888-555-888-101010-777-444-777----|
 B|000-----------------------------------|

c#|----------------------------------10-13-|
g#|--------------------------------10------|
 e|------------------------------10--------|
 b|-----------------------7-8-11-----------|
f#|----888-555-888-7-8-10------------------|
 B|-000------------------------------------|


Breakdown hectic bit

Guitar 1
x2
c#|--------------------------------------|
g#|-----12-12-----10-10-----11-----1212--|
 e|-----15-15-----13-13-----14-----1515--|
 b|--------------------------------------|
f#|--------------------------------------|
 B|-000-------000-------000----000-------|
x2
c#|--------------------------------------|
g#|-----1616-------1414-----15-----1616--|
 e|-----1919-------1717-----18-----1919--|
 b|--------------------------------------|
f#|--------------------------------------|
 B|-000-------000-------000----000-------|
Sweep bit after every hectic bit

c#|-10h13p10------9h12p9-----------------|
g#|---------11--11------10---------------|
 e|-----------10----------9--------------|
 b|--------------------------------------|
f#|--------------------------------------|
 B|--------------------------------------|

c#|-16h19p16------15h18p15---------------|
g#|---------17--17--------16-------------|
 e|-----------16------------15-----------|
 b|--------------------------------------|
f#|--------------------------------------|
 B|--------------------------------------|

Guitar two

x4
c#|--------------------------------------|
g#|-----12-12-----10-10-----11-----1212--|
 e|-----15-15-----13-13-----14-----1515--|
 b|--------------------------------------|
f#|--------------------------------------|
 B|-000-------000-------000----000-------|

After hectic bit
Guitar 1
x2
c#|-----------------------------------------|
g#|-----------------------------------------|
 e|-----------------------------------------|
 b|-------------------------------------3--2|
f#|-----3-3-----55-----3-------3-3------2--1|
 B|-000-----000----000-----000-----000--3--2|

x2
c#|-----------------------------------------|
g#|-----------------------------------------|
 e|-----------------------------------------|
 b|-----2-2-----3-3----2-------2-2------3--2|
f#|-------------------------------------2--1|
 B|-000-----000----000-----000-----000--3--2|

Guitar 2
x4
c#|-----------------------------------------|
g#|-----------------------------------------|
 e|-----------------------------------------|
 b|-------------------------------------3--2|
f#|-----3-3-----55-----3-------3-3------2--1|
 B|-000-----000----000-----000-----000--3--2|
On end chords end them quick and dont let them ring.

Chorus
Guitar 1 AND 2
x4
c#|------------------------------------------|
g#|------------------------------------------|
 e|------------------------------------------|
 b|-----555-444-333-222-111-------------8-7-6|
f#|-------------------------555-444-333-8-7-6|
 B|-000---------------------------------8-7-6|

Guitar 1

c#|-12h15p12----13h16p13----14h17p14----s24--|
g#|---------13----------14----------15-------|
 e|-----------12----------13----------14-----|
 b|------------------------------------------|
f#|------------------------------------------|
 B|------------------------------------------|

Breakdown
Guitar 1 And 2
x4
c#|-----------------------------------|
g#|-----------------------------------|
 e|-----------------------------------|
 b|----------------------3-----2------|
f#|-0000-------0000------2-----1------|
 B|-0000-------0000------3-----2------|

Riff thing after breakdown
Guitar 1
x4
c#|----------------------------------------------------|
g#|----------------------------------------------------|
 e|----------------------------------------------------|
 b|--------3-3-3-3---3p2------------3-3-3-3------------|
f#|----3h7--7-7-7-7------3p0-----3h7-7-7-7-7-----------|
 B|-000----------------------000-------------5555-8888-|

Guitar 2

c#|----------------------------------------------------|
g#|----------------------------------------------------|
 e|----------------------------------------------------|
 b|------------------------------------------5555-8888-|
f#|-000----------------------000-------------5555-8888-|
 B|-000----------------------000-------------5555-8888-|

Little between bit
Both guitars
c#|--------------------------------------------------|
g#|--------------------------------------------------|
 e|--------------------------------------------------|
 b|-0------0--0-0--0-0-0--0-0-0----------------------|
f#|-0------0--0-0--0-0-0--0-0-0----------------------|End last note quick with jarred grab
 B|-3------3--1-0--0-1-3--3-1-0----------------------|

End Breakdown
x like lots
c#|----------------------------------|
g#|----------------------------------|
 e|----------------------------------|
 b|----------------------------------|
f#|-000--000---0-0--000-000----------|
 B|-000--000---0-0--000-000----------|

Tappy and Underchords come in 4 bars into the Breakdown

c#|----------------------------------------------------------------------------------|
g#|----------------------------------------------------------------------------------|
e|-10101010101010101010101010101010---14-14-14-14-14-14-14-14-14-14-14-14-14-14-14---|
b|-----------------------------------------------------------------------------------|
f#|-8-8-8-8-8-8-8-8-8-8-8-8-8-8-8-8----12-12-12-12-12-12-12-12-12-12-12-12-12-12-12--|
B|-----------------------------------------------------------------------------------|

c#|----------------------------------------------------------------------------------|
g#|----------------------------------------------------------------------------------|
e|-----------------------------------------------------------------------------------|
b|-t12p8p5h8-t12p8p5h8-t12p8p5h8-t12p8p5h8-t12p7p3h7-t12p7p3h7-t12p5p2h5-t12p5p2h5---|
f#|----------------------------------------------------------------------------------|
B|-----------------------------------------------------------------------------------|
At the end just sustain the octave chords x2
comments
We did not receive enough feedback on this tab! Please rate:
print report bad tab
1 2 3 4 5
I want to post or [tab]
guest
You may want to rate the tab now too:
select rating
Please do not post tabs as comments. Select "correction" instead!