Oops, an error
Loading. Please wait.

The Discocks - Fucked Up In The City Bass Tab

507 views 1 this week
no commentswrite comment
1 2 3 4 5
3 more votes to show rating
add to favorites
launch autoscroll
font size
0
reset
guitar tuner
Autoscroll
slow
fast
+/-
esc
set tempo
stop
Help us to improve Ultimate-Guitar.com Take our survey!
×
Author
Difficulty
intermediate
Artist - The Discocks
Song - Fucked Up In The City
Tuning - Standard


Intro

G -------|       G --------|
D -------|       D --------|
A ---7---|       A --7\12--|
E -------|  X4   E --------|  X4


Intro\Chorus

G -----------------------------------------------|
D -----------------------------------------------|
A ---7-77----------------7-77--------------------|
E --------4-44-5-55-7-77------4-44-5-55-7-77-----|

G -----------------------------------------------|
D --------6-66-7-77-9-99------6-66-7-77-9-99-----|
A ---7-77----------------7-77--------------------|
E -----------------------------------------------|


Verse

G -----------------------------------------------|
D -----------------------------------------------|
A ---7-7777777-----------------------------------|
E -------------4-4444444-5-5555555-7-777--55-77--|

Pre Chorus

G -------------------------------|----------------|
D -------------------------------|----------------|
A -------------------------------|----------------|
E ---4-4444444-6\77-6\77-6\77----|--77-55-44-22---|


Post Chorus

G -----------------------------------------------|
D ---------------------------------99-77-66-55---|
A ---6\7777777-6\7777777-6\7777777---------------|
E -----------------------------------------------|


Breakdown

G ---------------------------------|--------------|
D ---------------------------------|---99999999---|
A ---7-7777777-4-4444444-2-2222222-|--------------|
E ---------------------------------|--------------|


Breakdown 2

G -------------------------------------------------|
D --------6-666-7-777-9-999------9-999-7-777-6-666-|
A ---7-777------------------7-777------------------|
E -------------------------------------------------|
Suggest correction
Give kudos to tab author, rate the tab!
1 2 3 4 5
comments
print report bad tab
guest
You may want to rate the tab now too:
select rating
Wanna post a correction for this tab? Suggest correction