Oops, an error
Loading. Please wait.

The Displacements - Journey To Canning Town Bass Tab

60 views 1 this week
no commentswrite comment
1 2 3 4 5
please rate
add to favorites
launch autoscroll
font size
0
reset
guitar tuner
Autoscroll
slow
fast
+/-
esc
set tempo
stop
Help us to improve Ultimate-Guitar.com Take our survey!
×
Contributor
IndieJoe 1,848
Intro after the 1st guitar riff
G|-------------------------|
D|-----------------3~~-----|
A|-----------5~~------5x---|
E|-----5~~-----------------|

G|---------|
D|---------|
A|3--3-----| x8
E|-----545-|

Verse:
starts 'get off the choo off the choo'
G|-------------|
D|------5------|
A|--5-7---7-6--| x16
E|7------------|

Chorus:
G|--------------------------------------------|
D|----------------------------00000--00000----|
A|3333302333330233333023333302-----34-----34--|
E|--------------------------------------------|

G|------------------|
D|44444444-6-4-2-0--|
A|------------------|
E|------------------|

whole of this x2

Verse:
G|---------|
D|---------|
A|3--3-----| x8
E|-----545-|

G|-------------|
D|------5------|
A|--5-7---7-6--| x16
E|7------------|

Chorus:
G|--------------------------------------------|
D|----------------------------00000--00000----|
A|3333302333330233333023333302-----34-----34--|
E|--------------------------------------------|

G|------------------|
D|44444444-6-4-2-0--|
A|------------------|
E|------------------|

whole of this x2

Bridge:
G|----------|
D|----------|
A|-4-4-4-02-|x6
E|----------|

G|--------|
D|--------|
A|6-5-4-3-|
E|--------|

G|-----------------      0202020202020202535353535/7\6\5\4--|
D|3030303030303030- x4   -----------------------------------|
A|-----------------      -----------------------------------|  whole riff x2
E|-----------------      -----------------------------------|


G|-----------------     -----------------|
D|--4---4---4---4--     456-456-456-456--|
A|57--57--57--57---x2   -----------------|x2  whole riff x2
E|-----------------     -----------------|

When the harmony kicks in
G|------------------   ------------------------------------|
D|------------------   23-3-3-3-23-3-3-3-57-7-7-7-9-8-7-6--|
A|34-4-4-4-34-4-4-4-x2 ------------------------------------|
E|------------------   ------------------------------------|

G|------------------   ---------------------------------------|
D|------------------   23-3-3-3-23-3-3-3-57-7-7-7-9-8-7-6-3~~-|
A|34-4-4-4-34-4-4-4-x2 ---------------------------------------|
E|------------------   ---------------------------------------|

Outro:
G|----------------------------|
D|------5------------5--------|
A|--5-7---7-6----5-7---7-6----|
E|7------------7-----------7--|
comments
We did not receive enough feedback on this tab! Please rate:
print report bad tab
1 2 3 4 5
I want to post or [tab]
guest
You may want to rate the tab now too:
select rating
Please do not post tabs as comments. Select "correction" instead!