Oops, an error
Loading. Please wait.

The Diverse Attraction - Floorboards Tab

96 views 1 this week
no commentswrite comment
1 2 3 4 5
3 more votes to show rating
add to favorites
launch autoscroll
font size
0
reset
how to read this tab
guitar tuner
Autoscroll
slow
fast
+/-
esc
set tempo
stop
Help us to improve Ultimate-Guitar.com Take our survey!
×
Author
Floorboards - The Diverse Attraction
Tabbed by: kylemain
Tuning: Drop C (CGCFAD)

Intro
D|-----------------------------|
A|--------------------6-6-6----|
F|--------------------9-9-9----|
C|-7h8-0-0--7h8-0-0---0-0-0----|
G|-7h8-0-0--7h8-0-0---0-0-0----|
C|-7h8-0-0--7h8-0-0---0-0-0----|


Verse
Guitar 1/ Bass
D|-----------------------------------|
A|-----------------------------------|
F|-----------------------------------|
C|--8-8--5-5--0-0----0-0--5-5--8-8---|
G|--8-8--5-5--0-0----0-0--5-5--8-8---|
C|--8-8--5-5--0-0----0-0--5-5--8-8---|
PM  ' '  ' '  ' '    ' '  ' '  ' '

Guitar 2
D|-------------13-13--|-------------------|
A|-10-10-11-11--------|-X2----10-10-11-11-|
F|--------------------|-------------------|  REPEAT
C|--------------------|-------------------| 
G|--------------------|-------------------|
C|--------------------|-------------------|


Chours
D|-----------------------------------------|
A|-----------------------------------------|
F|-----------------------------------------|
C|-0-0-0--88888888--0-0-0--55555555--------|
G|-0-0-0--88888888--0-0-0--55555555--------|
C|-0-0-0--88888888--0-0-0--55555555--------|


Interlude
D|-----------------------------------------|
A|-----------------------------------------|
F|-----------------------------------------|
C|-8-8-8-8--8-8-8-8----0-0-0-0--0-0-0-0----|
G|-8-8-8-8--8-8-8-8----0-0-0-0--0-0-0-0----|
C|-8-8-8-8--8-8-8-8----0-0-0-0--0-0-0-0----|


OH MY GOD!!
D|------------------------------------------------------------------|
A|------------------------------------------------------------------|
F|------------------------------------------------------------------|
C|-888888888888--101010101010101010101010--000000000000000000000000-|
G|-888888888888--101010101010101010101010--000000000000000000000000-|
C|-888888888888--101010101010101010101010--000000000000000000000000-|


Alright, there ya go!

I excluded the breakdowns cause there easy enough to get. There just opens.
YEAHHH!!
Suggest correction
Give kudos to tab author, rate the tab!
1 2 3 4 5
comments
print report bad tab
guest
You may want to rate the tab now too:
select rating
Wanna post a correction for this tab? Suggest correction