Oops, an error
Loading. Please wait.

The Dodoz - Do You Like Boys Tab

2,540 views 3 this week
no commentswrite comment
1 2 3 4 5
please rate
add to favorites
launch autoscroll
font size
0
reset
how to read this tab
guitar tuner
Autoscroll
slow
fast
+/-
esc
set tempo
stop
Help us to improve Ultimate-Guitar.com Take our survey!
×
 "several questions like ?"

(bass)
---------------------------------------------|
---------------------------------------------|
---------------------------------------------|
---------------------------------------------|
-7-7-7-7-7-7-----------10-9-9-9-9-9----------|
-------------5-7-8-8-8-----------------------| X4
(guitar 1)
----x-x-x-x-x-x-x-x-x-x-xxxxxxxxxxxxxxxxxxxxxx-|
----x-x-x-x-x-x-x-x-x-x-xxxxxxxxxxxxxxxxxxxxxx-|
----x-x-x-x-x-x-x-x-x-x-xxxxxxxxxxxxxxxxxxxxxx-|
----x-x-x-x-x-x-x-x-x-x-xxxxxxxxxxxxxxxxxxxxxx-|
----x-x-x-x-x-x-x-x-x-x-xxxxxxxxxxxxxxxxxxxxxx-|
----x-x-x-x-x-x-x-x-x-x-xxxxxxxxxxxxxxxxxxxxxx-|

"i keep on falling"
(guitar 1)

7-7-7-7-7-7-7-7--8-8-8-8-7-7-7-7----------------|
8-8-8-8-8-8-8-8--8-8-8-8-7-7-7-7----------------|
9-9-9-9-9-9-9-9--9-9-9-9-8-8-8-8----------------|
-----------------10 10 10-9-9-9-9---------------|
------------------------------------------------|
------------------------------------------------|X4

(guitar2)
----------------------------------------------|
----------------------------------------------|
----------------------------------------------|
-----------------------7-7-7-7-9-9-9-9--------|
-10-10-10-10-10-10-9-7------------------------|
----------------------------------------------|X4

"give me your arm my little doll"
(guitar1)
12-10-8--7------------------------------------|
13-12-10-8------------------------------------|
14-12-10-9------------------------------------|
14-12-10-9------------------------------------|
12-10-8--7------------------------------------|
----------------------------------------------|

"just fall in love, just fall in love"
same guitar
-8---7--7-------------------------------------|
-10--7--8-------------------------------------|
-10--8--9-------------------------------------|
-10--9--9-------------------------------------|
-8---9--7-------------------------------------|
-----7----------------------------------------|

(guitar2)
-----------------------------------------------------------12-(X9)-----|
-12-(X14)-5-5-5-5-7-7-7-8-8-8-8-8-10-10-10-10-12-(X16)-13 (X7)---------|
-----------------------------------------------------------------------|
-----------------------------------------------------------------------|
-----------------------------------------------------------------------|
-----------------------------------------------------------------------|

"I hate boys"
(guitar1)
----------------------------------------------------|
12---------------10---------------------------------|
--12-9-11-12-9-----12-11-12-------------------------|
---------------12-----------------------------------|
----------------------------------------------------|
----------------------------------------------------|

-----------------------12-10------------------------|
12--------------10----------13-12-13----------------|
--12-9-11-12-9----12-11-----------------------------|
--------------12------------------------------------|
----------------------------------------------------|
----------------------------------------------------|

(guitar2)
-7-5-3-2--------------------------------------------|
-8-7-5-4--------------------------------------------|
-9-7-5-4--------------------------------------------|
-9-7-5-4--------------------------------------------|
-7-5-3-2--------------------------------------------|
----------------------------------------------------|


"you're not an empty fire"
(guitar1)
---------------------------------------------------12-12-12-|
-----------------12-12-12-12-15-12-----------------12-12-12-|
9-9-9-9-12-9---9------------------14-12-9-9-12-9---12-12-12-|
-------------12---------------------------------12----------|
------------------------------------------------------------|
------------------------------------------------------------|

"i keep on falling"
(guitar 1)

7-7-7-7-7-7-7-7--8-8-8-8-7-7-7-7----------------|
8-8-8-8-8-8-8-8--8-8-8-8-7-7-7-7----------------|
9-9-9-9-9-9-9-9--9-9-9-9-8-8-8-8----------------|
-----------------10 10 10-9-9-9-9---------------|
------------------------------------------------|
------------------------------------------------|X4

(guitar2)
----------------------------------------------|
----------------------------------------------|
----------------------------------------------|
-----------------------7-7-7-7-9-9-9-9--------|
-10-10-10-10-10-10-9-7------------------------|
----------------------------------------------|X4

"give me your arm my little doll"
(guitar1)
12-10-8--7------------------------------------|
13-12-10-8------------------------------------|
14-12-10-9------------------------------------|
14-12-10-9------------------------------------|
12-10-8--7------------------------------------|
----------------------------------------------|

"just fall in love, just fall in love"
same guitar
-8---7--7-------------------------------------|
-10--7--8-------------------------------------|
-10--8--9-------------------------------------|
-10--9--9-------------------------------------|
-8---9--7-------------------------------------|
-----7----------------------------------------|

(guitar2)
-----------------------------------------------------------12-(X9)-----|
-12-(X14)-5-5-5-5-7-7-7-8-8-8-8-8-10-10-10-10-12-(X16)-13 (X7)---------|
-----------------------------------------------------------------------|
-----------------------------------------------------------------------|
-----------------------------------------------------------------------|
-----------------------------------------------------------------------|

"I hate boys"
(guitar1)
----------------------------------------------------|
12---------------10---------------------------------|
--12-9-11-12-9-----12-11-12-------------------------|
---------------12-----------------------------------|
----------------------------------------------------|
----------------------------------------------------|

-----------------------12-10------------------------|
12--------------10----------13-12-13----------------|
--12-9-11-12-9----12-11-----------------------------|
--------------12------------------------------------|
----------------------------------------------------|
----------------------------------------------------|

(guitar2)
-7-5-3-2--------------------------------------------|
-8-7-5-4--------------------------------------------|
-9-7-5-4--------------------------------------------|
-9-7-5-4--------------------------------------------|
-7-5-3-2--------------------------------------------|
----------------------------------------------------|

"i hate booooyyyyyyyyyyyyysssssssssssss"
(guitar1)
-------------------------------------------------------|
-------------------------------------------------------|
9-9-9-9-11-11-11-11-12-12-12-12-14-14-14-14------------|
x-x-x-x-x--x--x--x--x--x--x--x--x--x--x--x-------------|
7-7-7-7-9--9--9--9--10-10-10-10-12-12-12-12------------|
-------------------------------------------------------|

-------------------------------------------------------|
-------------------------------------------------------|
9-9-9-9-11-11-11-11-12-12-12-12-16-16-16-16------------|
x-x-x-x-x--x--x--x--x--x--x--x--x--x--x--x-------------|
7-7-7-7-9--9--9--9--10-10-10-10-14-14-14-14------------|
-------------------------------------------------------|        X2

(guitar2)
-7-5-3-2--------------------------------------------|
-8-7-5-4--------------------------------------------|
-9-7-5-4--------------------------------------------|
-9-7-5-4--------------------------------------------|
-7-5-3-2--------------------------------------------|
----------------------------------------------------|

break
(guitar1)
-7-5-3-----------------------------------------------|
-8-7-5-----------------------------------------------|
-9-7-5-----------------------------------------------|
-9-7-5-----------------------------------------------|
-7-5-3-----------------------------------------------|
-----------------------------------------------------|

(guitar2)
-----------------------------------------------------|
--8-7-8--8-7-8----8-7-8--8-7-8-----------------------|
--------9------9-7------5------9---------------------|
-----------------------------------------------------|
-----------------------------------------------------|
-----------------------------------------------------|

-7-5-7---7-5-7-----7-5-7---7-5-7---------------------|
-------8-------8-7-------5-------8-------------------|
-----------------------------------------------------|
-----------------------------------------------------|
-----------------------------------------------------|

d-arthur@hotmail.fr
Suggest correction
Give kudos to tab author, rate the tab!
1 2 3 4 5
comments
print report bad tab
guest
You may want to rate the tab now too:
select rating
Wanna post a correction for this tab? Suggest correction