Oops, an error
Loading. Please wait.

The Dreaded Marco - Dirge Tab

54 views 1 this week
no commentswrite comment
1 2 3 4 5
please rate
add to favorites
launch autoscroll
font size
0
reset
how to read this tab
guitar tuner
Autoscroll
slow
fast
+/-
esc
set tempo
stop
Help us to improve Ultimate-Guitar.com Take our survey!
×
Author
Difficulty
Tuning
novice
D G C F A D
-----------------------------------------------------------------------------
                             Dirge - The Dreaded Marco 
-----------------------------------------------------------------------------
                                                              

Tuning: Down Whole Step

            
     Intro/Verse:

        
D|-----------|---------|---------|---------|---------|---------|---------|
A|-----------|---------|---------|---------|---------|---------|---------|
F|-----------|---------|---------|---------|---------|---------|---------|
C|-----2--2--|----2--2-|----2--2-|----2--2-|--2-2----|--2-2----|--2-2----|
G|---0---3---|--0---3--|--0---3--|--0---3--|---3-----|---3-----|---3-----|
D|-----------|---------|---------|---------|-4-------|-4-------|-4-------|
  
D|-----------|---------|---------|---------|---------|---------|---------|
A|-----------|---------|---------|---------|---------|---------|---------|
F|-----------|---------|---------|---------|---------|---------|---------|
C|--2-2------|--2-2----|--2-2----|--2-2----|--2-2----|--2-2----|--2-2----|
G|---3-------|---3-----|---3-----|---3-----|---3-----|---3-----|---3-----|
D|-4---------|-3-------|-3-------|-3-------|-3-------|-2-------|-2-------|

D|-----------|---------|
A|-----------|---------|
F|-----------|---------| X2
C|--2-2------|--2-2----|
G|---3-------|---3-----|
D|-2---------|-2-------|

~~~~~~~~~~~~~~~~~~~~~~~~~~~~~~~~~~~~~~~~~~~~~~~~

D|-1---------|--0------|---------|--2------|-1-------|--0------|---------|
A|-1---------|--0------|--1------|--1------|-1-------|--0------|---------|
F|-2---------|--1------|--0------|--2------|-2-------|--1------|---------|
C|-3---------|--0------|--2------|--x------|-3-------|--0------|----2--2-|
G|-3---------|--2------|--3------|--x------|-3-------|--2------|--0---3--|
D|-1---------|--0------|--x------|--x------|-1-------|--0------|---------|

D|-----------|
A|-----------|
F|-----------|
C|----2-2----|
G|---0-3-0---|
D|-----------|
Suggest correction
Give kudos to tab author, rate the tab!
1 2 3 4 5
comments
print report bad tab
guest
You may want to rate the tab now too:
select rating
Please do not post tabs as comments. Select "correction" instead!