Oops, an error
Loading. Please wait.

The Dreams - Alda Tab

826 views 1 this week
no commentswrite comment
1 2 3 4 5
3 more votes to show rating
add to favorites
launch autoscroll
font size
0
reset
how to read this tab
guitar tuner
Autoscroll
slow
fast
+/-
esc
set tempo
stop
Help us to improve Ultimate-Guitar.com Take our survey!
×
Author
Hello
the first The Dreams tab on the internet (or atleast, i haven't found any yet)
i'm not completely sure about this, but it sounds about right...

intro

(almost or no distortion)
e/----------------------------------------------------------/
B/----------------------------------------------------------/
G/----------------------------------------------------------/
D/2---4---6-------------------------------------------------/
A/3---5---7-------------------------------------------------/
E/3x8-5x8-7x15----------------------------------------------/

verse
(still, no distortion)
e/---------------------/
B/---------------------/
G/4-----6--------------/
D/5-----7---2---4------/
A/5x12--7x4-3---5------/
E/----------3x8-5x8----/   x3 

before the first chorus, there is a pre chorus...
the pre chorus goes:

(bring in the distortion)
e/----------/
B/----------/
G/----------/
D/5---------/
A/3x12-5-5--/
E/-----3-3--/

and then, the chorus:

e/--------------/
B/--------------/
G/--------------/
D/5-------7-----/
A/3x16-5--5x8---/
E/-----3x8------/ x2

When the chorus ends, Corfitz does a C-minor chord  

after the second chorus, there is a bridge wich goes:

e/---------------------------------------/
B/---------------------------------------/
G/---------------------------------------/
D/2----4-4-4-5----7---9---12----xx-x-xx--/
A/2----4-4-4-5----7---9---12----xx-x-xx--/
E/0x13-2-2-2-3x16-5x8-7x8-10x16-xx-x-xx--/

"solo" 
Just standard octave chords

e/----------------------------------------------------------/
B/----------------------------------------------------------/
G/12-12-12-11-14-12--11---16----14-12-11--------------------/
D/x--x--x--x--x--x---x----x-----x--x--x---------------------/
A/10-10-10-9--12-10--9-x2-14-x8-12-10-9---------------------/
E/----------------------------------------------------------/

Can be played through the last chorus

Outro is intro x4
Let last note ring
                                                    
Finally got myself assed to update this...
Suggest correction
Give kudos to tab author, rate the tab!
1 2 3 4 5
comments
print report bad tab
guest
You may want to rate the tab now too:
select rating
Wanna post a correction for this tab? Suggest correction