Oops, an error
Loading. Please wait.

The Dreams - Under The Sun Bass Tab

854 views 1 this week
no commentswrite comment
1 2 3 4 5
3 more votes to show rating
add to favorites
launch autoscroll
font size
0
reset
guitar tuner
Autoscroll
slow
fast
+/-
esc
set tempo
stop
Help us to improve Ultimate-Guitar.com Take our survey!
×
Author
Difficulty
novice
ARTIST:THE DREAMS
ALBUM:UNDER THE SUN
SONG NAME:UNDER THE SUN

Intro
G:---------------------------------|
D:---------------------------------|
A:---------1--3--5-----------------|
E:---3--5--------------------------|

Verse
G:---------------------------------|
D:---------------------------------|
A:--5-----1--3---------------------|X2
E:-----3---------------------------|

G:---------------------------------|
D:---------------------------------|
A:--5(X8)------1(X8)-3(X8)----3----|X2
E:--------3(X8)--------------------|

Chorus:WE ARE ALL UNDER THE SUN.....
G:---------------------------------|
D:---------------------------------|
A:--1(X8)--3(X8)-5(X16)------------|X4
E:---------------------------------|

THEN PLAY INTRO X2

THEN THE VERSE
AND FINALY 
THE 
BRIDGE
G:---------------------------------|
D:---------------------------------|
A:----------11--33---------11--33--|
E:--33--55---------33--55----------|

THEN PLAY
CHORUS X4 AND SO END ON
A 5
Suggest correction
Give kudos to tab author, rate the tab!
1 2 3 4 5
comments
print report bad tab
guest
You may want to rate the tab now too:
select rating
Wanna post a correction for this tab? Suggest correction