Oops, an error
Loading. Please wait.

The English Panther - The Storm Tab

258 views 1 this week
no commentswrite comment
1 2 3 4 5
please rate
add to favorites
launch autoscroll
font size
0
reset
how to read this tab
guitar tuner
Autoscroll
slow
fast
+/-
esc
set tempo
stop
Help us to improve Ultimate-Guitar.com Take our survey!
×
Contributor
Difficulty
intermediate
-------------------------------------------------------------------------------
                            STORMS - The English Panther
-------------------------------------------------------------------------------
Tabbed by:Rafa88offspring
Email:Rafa88offspring@hotmail.com

Tuning: Standard (EADgbe)

This is one of my favorite songs by the panther (Travis Stever from Coheed)
I know the chords are way too basic in my tab, he does some variations in the
song.

start strumming D palm muted then:
e|---------9-7-----------------|
B|-10-9-10-----10-9-7-10-7-----|
G|--------------------------9--|
D|-----------------------------|
A|-----------------------------|
E|-----------------------------|

Then strum A palm muted, then:
e|----------------9-------------|
B|-----------9h10---12-10p9-----|
G|------9h11----------------11--|
D|-9h11-------------------------|
A|------------------------------|
E|------------------------------|

Then a second guitar comes in with:
e|---------------------------|
B|-/10-\7-/10-\7-7/10-7-5-5--|
G|---------------------------|
D|---------------------------|
A|---------------------------|
E|---------------------------|

Verse

strum D then:
e|--------------|
B|-7-5-------5--|
G|-----7-6-7----|
D|--------------|
A|--------------|
E|--------------|

strum A then:
e|--------------|
B|--------------|
G|-6-4-------4--|
D|-----7-6-7----|
A|--------------|
E|--------------|

Chorus

strum Bm - A - Em - G

2nd Chorus guitar 2:

e|--------------------------------------|
B|-------------7-5----------------------|
G|-7-6-4-4-6-7-----7--7p6-7-7-6-/11/12--|
D|--------------------------------------|
A|--------------------------------------|
E|--------------------------------------|

Solo
e|---------------------------------------------------|
B|-----------------------8-10-8----------------------|
G|-9p7---9p7---7/9/11-11--------11-9-11-9-7-9-9p7----|
D|-----7-----7------------------------------------9--|
A|---------------------------------------------------|
E|---------------------------------------------------|

Then he does a quick sweep which i haven't been able to fully figure out yet

then at the end of the sweep,

e|-12b-10----10-12b--|
B|-------12----------|
G|-------------------|
D|-------------------|
A|-------------------|
E|-------------------|

e|-10/-----12/-----13-------15-15-----------------|
B|-11b(12)/13b(14)/14b(15)--17b---17-15-17-15-15--|
G|------------------------------------------------|
D|------------------------------------------------|
A|------------------------------------------------|
E|------------------------------------------------|

| /  slide up
| \  slide down
| h  hammer-on
| p  pull-off
| ~  vibrato
| +  harmonic
| x  Mute note
===============================================================================
Suggest correction new What's this?
You can suggest a correction to this tab. Community and Mods will review your correction and vote to approve or reject it.
comments
We did not receive enough feedback on this tab! Please rate:
print report bad tab
1 2 3 4 5
guest
You may want to rate the tab now too:
select rating
Please do not post tabs as comments. Select "correction" instead!