Oops, an error
Loading. Please wait.

The Epilogues - Hunting Season Tab

208 views 1 this week
no commentswrite comment
1 2 3 4 5
excellent!
x 1
add to favorites
launch autoscroll
font size
0
reset
how to read this tab
guitar tuner
Tab Pro tools
  • play this tab
  • loop segment
  • change instrument
  • show fretboard
  • metronome
Autoscroll
slow
fast
+/-
esc
set tempo
stop
Contributor
Difficulty
novice
I didn't see a tab for this so I made one. As far as my knowledge and skill goes 
its as near perfect as I can get. I'm not 100% on the solo though. This is also my 
first tab so I hope you enjoy this song and band as much as I do.

Chords used in the song:
A: |--0--|   Dm: |--0--|   Am: |--0--|
   |--2--|       |--3--|       |--1--|
   |--2--|       |--2--|       |--2--|
   |--2--|       |--3--|       |--2--|
   |--0--|       |--0--|       |--0--|
   |--X--|       |--X--|       |--X--|

G: |--3--|   F:  |--1--|
   |--3--|       |--1--|
   |--4--|       |--2--|
   |--5--|       |--3--|
   |--5--|       |--3--|
   |--3--|       |--1--|

Intro:
Guitar I (Clean Electric): (0:00-0:12)
  A                         Dm
||------------------------------------------------------------||
||*-2-----2-----2-----2-----2---3-----3-----3-----3-----3----*||
||----2-----2-----2-----2-----2---2-----2-----2-----2-----2---||  X2
||------2-----2-----2-----2---------3-----3-----3-----3-------||
||*-0---------------------------0----------------------------*||
||------------------------------------------------------------||

After the Second Time Guitar II (Light Distortion)plays this solo-ish thing:
(0:13-0:24)   tremolo pick everything  (about 8 picks a note)
          \/ <--from here to here--> \/   (only 4 times for the 3)
||--------|--------------------------||
||--2/5/7-|-10--8--6--5--5--3--8--6--||
||--------|--------------------------||
||--------|--------------------------||
||--------|--------------------------||
||--------|--------------------------||

And for Guitar I:
You strum the A and Dm chords during the solo with the same timing.

Verse 1:
Guitar I: (0:24-0:51)
   Oh I,       Feel the Sting
      Am                   G
||---------------------------------|
||*-------1------------------------|
||------2----------------------4---|
||---------------------------5-----|
||*---0----------------------------|
||-------------------------3-------|
Guitar II: (0:24-0:51)
||---------------------------------|
||*--------------------------------|
||----5--------------------4-------|
||---------------------------------|
||*--------------------------------|
||---------------------------------|
The disappointment......time
      Dm               Am
||---------------------------------||
||--------3----------------1------*||
||------2----------------2---------||
||---------------------------------||
||----0----------------0----------*||
||---------------------------------||

||---------------------------------||
||--------------------------------*||
||----7----------------5-----------||   X2
||---------------------------------||
||--------------------------------*||
||---------------------------------||

Pre-Chorus:
No Guitar I Here
Guitar II: (0:51-0:57)
   Oh,  what have I become
||--------------------------||
||--------------------------||
||--------------------------||
||--------------------------||
||--------------------------||
||-/5-(Let feedback ring)---||

Chorus:
Guitar I & II: (0:57-1:41)
  Everything....wanted sudd..tonight     I....now
   F                   G           Am          F
||-1-------------------3-----------0-----------1--||
||-1-------------------3-----------1-----------1--||
||-2-------------------4-----------2-----------2--|| 
||-3-------------------5-----------2-----------3--||
||-3-------------------5-----------0-----------3--||
||-1-------------------3-----------------------1--||
  all...........want   are....aside      And..now
   F                   G           Dm          Am
||-1-------------------3-----------0-----------0--||
||-1-------------------3-----------3-----------1--||
||-2-------------------4-----------2-----------2--||
||-3-------------------5-----------3-----------2--||
||-3-------------------5-----------0-----------0--||
||-1-------------------3--------------------------||

Strum Chords up and down for both guitars ending on one A chord:

               A                 Dm                      A       Dm      A
I need them now.   And I'm afraid   it's all  for nothing.

Verse 2:
Guitar I: (1:42-2:07)
   Oh why,     Is it hard to see
      Am                   G
||---------------------------------|
||*-------1------------------------|
||------2----------------------4---|
||---------------------------5-----|
||*---0----------------------------|
||-------------------------3-------|
Guitar II: (1:42-2:07)
||---------------------------------|
||*--------------------------------|
||---------------------------------|
||---------------------------------|
||*---33333333333333333333322222222|
||---------------------------------|
At a glance.............fine
      Dm               Am
||---------------------------------||
||--------3----------------1------*||
||------2----------------2---------||
||---------------------------------||
||----0----------------0----------*||
||---------------------------------||

||---------------------------------||
||--------------------------------*||
||---------------------------------||   X2
||---------------------------------||
||22225555555555555555500000000000*||
||---------------------------------||

Chorus: (2:08-2:40)
Guitar 1 & 2 are both strumming the entire chorus:
 F                        G                            Am                F
Everything I ever wanted suddenly is proving real tonight I can feel it now
 F                                     G                                  Dm
Yet all the things I think I want are very things that push my friends aside
                  Am                  A
And i need them now ,  I need them now
          Dm                       A
I'm afraid   it's all   for nothing

Solo: (2:40-2:59)
Guitar I keeps playing the last line of the chorus.
Guitar II (tremolo picking):
(#'s are how many times each note is tremolo picked)
   4 4 4 4 4 4  4  8  2  4   4    2  8  4   4  4
||------------------------------------------------||
||-2/3/5/6/8/10/12/14/15-18b-18br-15-14-14b-13-12-||
||------------------------------------------------||
||------------------------------------------------||
||------------------------------------------------||
||------------------------------------------------||

Bridge: (2:59-3:12)
Guitar I only:
  Cause all,    all I see    are these let down faces   looking back at me
         F             G
||-------1-------------3--------------------------0---------------------1--|
||-------1-------------3--------------------------3---------------------1--|
||-------2-------------4--------------------------2---------------------2--|
||-------3-------------5--------------------------3---------------------3--|
||-------3-------------5--------------------------0---------------------3--|
||-------1-------------3------------------------------------------------1--|

Chorus: (3:12-3:38)
 F                           G
Everything I've ever wanted, All the lies I've ever told and
  Dm                               Am
the promises and hearts I've broken, god
               A
I feel them now
             Dm                      A         Dm         A
and I'm afraid   it's all   for nothing

Quiet Outro: (3:38-4:00)
Just Guitar 1 quietly:

||------------------------------------------------------------||
||-------3-------2---------------3-------2--------------------||
||------2-------2---------------2-------2---------------------||
||-----3-------2---------------3-------2----------------------||
||----0-------0---------------0-------0-----------------------||
||------------------------------------------------------------||

Musical Key:
   / = slides
   b = bend up
   br = return bend
   ||* *|| repeat
comments
We did not receive enough feedback on this tab! Please rate:
print report bad tab
1 2 3 4 5
I want to post or [tab]
guest
You may want to rate the tab now too:
select rating
Please do not post tabs as comments. Select "correction" instead!