Oops, an error
Loading. Please wait.

The Exponents - Who Loves Who The Most Tab

version 1
version 1

Whole song

Interactive

1,946 views 1 this week
no commentswrite comment
1 2 3 4 5
please rate
add to favorites
launch autoscroll
font size
0
reset
how to read this tab
guitar tuner
Autoscroll
slow
fast
+/-
esc
set tempo
stop
Help us to improve Ultimate-Guitar.com Take our survey!
×
Author
Difficulty
WHO LOVES WHO THE MOST by The Exponents

I Love this Song, one of the better Kiwi Classics.

First Time Bothering to write a tab in years, Its not really finished, the Guitar Pro 
that I wrote is much better...Get Guitar Pro if you don't already have it.

             v    v  v ^  ^ v  ^  v     v    v  v ^  ^ v  ^  v
E||-------|--------------------------|--------------------------|
B||-------|------------7----7--5--7--|------------7----7--5--7--|
G||-------|--6---------7----7--5--7--|--6---------7----7--5--7--|
D||-------|--7----x--x-7--x-7--5--7--|--7----x--x-7--x-7--5--7--|
A||-------|--7----x--x-5--x-5--5--5--|--7----x--x-5--x-5--5--5--|
E||-------|--5----x--x----x----------|--5----x--x----x----------|


  v    v  v ^  ^ v  ^  v     v    v  v ^  ^ v  ^  v
--------------------------|--------------------------|
------------7----7--5--7--|------------7----7--5--7--|
--6---------7----7--5--7--|--6---------7--x-7--5--7--|
--7----x--x-7--x-7--5--7--|--7----x--x-7--x-7--5--7--|
--7----x--x-5--x-5--5--5--|--7----x--x-5--x-5--5--5--|
--5----x--x----x----------|--5----x--x----x----------|


   v    v  v ^  ^ v  ^  v     v    v  v ^  ^ v  ^  v
---------------------------|---------------------------|
--7----x--x--x--12--x--12--|--7----x--x--x--12--x--12--|
--7----x--x--x--12--x--12--|--7----x--x--x--12--x--12--|
--7----x--x--x--12--x--12--|--7----x--x--x--12--x--12--|
--5----x--x--x--10--x--10--|--5----x--x--x--10--x--10--|
---------------------------|---------------------------|


  Q    E  E  E   E  E   E     Q    E  E  E   E  E   E
---------------------------|---------------------------|
--7----x--x--x--12--x--12--|--7----x--x--x--12--x--12--|
--7----x--x--x--12--x--12--|--7----x--x--x--12--x--12--|
--7----x--x--x--12--x--12--|--7----x--x--x--12--x--12--|
--5----x--x--x--10--x--10--|--5----x--x--x--10--x--10--|
---------------------------|---------------------------|


                                v     ^   ^  v
  Q    E  S E  S E  E  E     S  E  S  E   S  E  S E  E  E
--------------------------|--------------------------------|
------------7----7--5--7--|----12--x-12--12-12----7--5--7--|
--6---------7----7--5--7--|--x-12--x-12--12-12--x-7--5--7--|
--7----x--x-7--x-7--5--7--|--x-12--x-12--12-12--x-7--5--7--|
--7----x--x-5--x-5--5--5--|--x-10--x-10--10-10--x-5--5--5--|
--5----x--x----x----------|--x------------------x----------|


  H        H
--------------------|-----------|-----------|-----------|
--------------------|-----------|-----------|-----------|
--6-----------------|-----------|-----------|-----------|
--7-----------------|-----------|-----------|-----------|
--7-----------------|-----------|-----------|-----------|
--5-----------------|-----------|-----------|-----------|


                                v     ^   ^  v
  Q    E  S E  S E  E  E     S  E  S  E   S  E  S E  E  E
--------------------------|--------------------------------|
------------7----7--5--7--|----12--x-12--12-12----7--5--7--|
--6---------7----7--5--7--|--x-12--x-12--12-12--x-7--5--7--|
--7----x--x-7--x-7--5--7--|--x-12--x-12--12-12--x-7--5--7--|
--7----x--x-5--x-5--5--5--|--x-10--x-10--10-10--x-5--5--5--|
--5----x--x----x----------|--x------------------x----------|


  Q    E.  S E  E  S  E.      W                   Q    E  S E  S E  E  E
--------------------------|--------------------|---------------------------||
--------------------------|--------------------|------------7----7--5------||
--9----9---9-9--9--x-11---|--12----------------|--6---------7----7--5-----*||
--9----9---9-9--9--x-11---|--12----------------|--7----x--x-7--x-7--5-----*||
--9----9---9-9--9--x-11---|--12----------------|--7----x--x-5--x-5--5------||
--7----7---7-7--7--x--9---|--10----------------|--5----x--x----x-----------||


        Q    E.  S E  E  S  E.      W
-----|--------------------------|--------------------||
-----|--------------------------|--------------------||
-----|--9----9---9-9--9--x-11---|--12----------------||
-----|--9----9---9-9--9--x-11---|--12----------------||
-----|--9----9---9-9--9--x-11---|--12----------------||
-----|--7----7---7-7--7--x--9---|--10----------------||

Tabbed by BeSerKa 11 Feb 2008
I'm currently looking for a drummer, vocalist and Singer for a Classic Rock Band in 
if you know anyone :)
contact my gmail at dvd.nzl
Suggest correction
Give kudos to tab author, rate the tab!
1 2 3 4 5
comments
print report bad tab
guest
You may want to rate the tab now too:
select rating
Please do not post tabs as comments. Select "correction" instead!