Oops, an error
Loading. Please wait.

The Fall Of Man - The Plague Tab

72 views 1 this week
no commentswrite comment
1 2 3 4 5
please rate
add to favorites
launch autoscroll
font size
0
reset
how to read this tab
guitar tuner
Autoscroll
slow
fast
+/-
esc
set tempo
stop
Help us to improve Ultimate-Guitar.com Take our survey!
×
Difficulty
intermediate
Band: The Fall Of Man
Song: The Plague
Album: The Plague EP
Guitarists: Mike Connolly, Carlden Luna
Tabbed By: Mike Connolly
Tuning: Eb (Low To High-Eb Ab Db Gb Bb Eb)
www.thefallofmanhc.tk
Key:
.-Palm Mute
~-Ring Out

Gtr. 1 (Mike Connolly)
E|------------|
B|------------|
G|--0--0------|
D|-4--4---4--4|
A|2--2---2--2-|
E|------3--3--|Intro (4x clean)

E|------------|
B|------------|
G|------------|
D|5-7-9~9-7-5~|
A|5-7-9~9-7-5~|
E|3-5-7~7-5-3~|Verse 1 Pt. 1 (2x Clean, 2x Distorted)

E|-----------------|
B|-----------------|
G|-----------------|
D|5-7-9~---9-7-5~--|
A|5-7-9~00-9-7-5~00|
E|3-5-7~00-7-5-3~00|Verse 1 Pt. 2 (Distorted 3x)
        ..       ..
E|-----------------------------|
B|-----------------------------|
G|-----------------------------|
D|---------------------------0-|
A|00000000-3-2-0-00000000-2-3--|
E|00000000-------00000000------|Chorus(6x Distorted)
  ........       ........      

E|----------------------------|
B|----------------------------|
G|----------------------------|
D|----------------------------|
A|2-4-5-4-2-4-5--2-4-5-4-2-4-3|
E|0-2-3-2-0-2-3--0-2-3-2-0-2-1|Verse 2 (3x Distorted)

E|---------------|---------------|
B|-------(2x)----|--------(2x)---|
G|---------------|---------------|
D|7777-777-777777|6666-666-666666|
A|6666-666-666666|5555-555-555555|
E|5555-555-555555|4444-444-444444|Breakdown(2x Distorted)

E|12-11-10111011-10-989|
B|---------------------|
G|---------------------|
D|---------------------|
A|---------------------|
E|---------------------|Solo (5x Distorted)

E|---------------------|
B|---------------------|
G|---------------------|
D|6-5-4-5-4-3--4-3-2-3-|
A|---------------------|
E|---------------------|Outro (6x distorted) Bend Last note on the 6th time

Song Structure Gtr. 1
Intro
Verse 1 Pt. 1
Verse 1 Pt. 2
Chorus
Verse 2
Breakdown
Solo
Chorus
Outro



Gtr. 2 (Carlden Luna)
E|-----------|
B|-----------|
G|-----------|
D|-----------|
A|2~---------|
E|-----3~----|Intro (4x Clean)

E|------------|
B|------------|
G|------------|
D|------------|
A|------------|
E|3-5-7~7-5-3~|Verse Pt.1(2x Clean, 2x Distorted)

E|-----------------|
B|-----------------|
G|-----------------|
D|-----------------|
A|------00-------00|
E|3-5-7~00-7-5-3~00|Verse 1 Pt.2 (2x Distorted)
        ..       ..
E|-----------------------|
B|-----------------------|
G|-----------------------|
D|-----------------------|
A|00000000-------00000000|
E|00000000-------00000000|Chorus (6x Distorted)
  ........       ........
E|----------------------------|
B|----------------------------|
G|----------------------------|
D|----------------------------|
A|----------------------------|
E|0-2-3-2-0-2-3--0-2-3-2-0-2-1|Verse 2 (3x Distorted)

E|---------------|
B|---------------|
G|---------------|
D|---------------|
A|0000-000-000000|
E|0000-000-000000|Breakdown (8x Distorted)
  .... ... ......

Under Gtr. 1's Solo, Play Breakdown 3x

E|-----------|
B|-----------|
G|-----------|
D|--------0~~|
A|----0~~----|
E|0~~--------|Outro (2x Distorted) Ring Last Note Out Until End


Song Structure Gtr. 2
Intro
Verse 1 Pt. 1
Verse 1 Pt. 2
Chorus
Verse 2
Breakdown
Under Solo
Chorus
Outro


Bass Plays The Same Thing As Gtr. 2.
Suggest correction
Give kudos to tab author, rate the tab!
1 2 3 4 5
comments
print report bad tab
guest
You may want to rate the tab now too:
select rating
Please do not post tabs as comments. Select "correction" instead!