Oops, an error
Loading. Please wait.

The Fallen Souls - Obscurity Tab

51 views 1 this week
no commentswrite comment
1 2 3 4 5
please rate
add to favorites
launch autoscroll
font size
0
reset
how to read this tab
guitar tuner
Autoscroll
slow
fast
+/-
esc
set tempo
stop
Help us to improve Ultimate-Guitar.com Take our survey!
×
Contributor
Difficulty
intermediate
------------------------------------------------------------------------------
Intro:Guitar 1
------------------------------------------------------------------------------

e|------------------------------------------------------|
B|------------------------------------------------------|
G|------------------------------------------------------|x3
D|------5-----7-----8-7-5-------------------------------|
A|5-7-8---8-7---8-7-------8-7-4-5-5/7---9-8-7-8-7-6-7-6-|
E|------------------------------------------------------|



e|------------------------------------------------------|
B|------------------------------------------------------|
G|------------------------------------------------------|x2
D|------5-----7-----8-7-5-------------------------------|
A|5-7-8---8-7---8-7-------8-7-4-5-5/7---9-8-7-8-7-6-7-6-|
E|------------------------------------------------------|


Guitar 2
   x6
e|-----\------------------|          Play after First Riff played TWICE
B|-----\------------------|
G|-----\------------------|x2
D|xx-1-\-3-2-1-2-1-0-1-0--|
A|xx-1-\-3-2-1-2-1-0-1-0--|
E|xx-1-\-3-2-1-2-1-0-1-0--|

------------------------------------------------------------------------------
Core Riff : Guitar 1 & 2
------------------------------------------------------------------------------



e|--------------------\------------------------------|
B|--------------------\------------------------------|
G|--------------------\------------------------------|
D|3-2-xxxxxxxxxxxxxxxx\-xx-1-xxxx-3-xxxx-4-xxxx-3----|
A|3-2-xxxxxxxxxxxxxxxx\-xx-1-xxxx-3-xxxx-4-xxxx-3----|
E|1-2-xxxxxxxxxxxxxxxx\-xx-1-xxxx-3-xxxx-4-xxxx-3----|
               | Guitar 1 |
e|---------------------------------------------------|
B|---------------------------------------------------|
G|----Will Be----------------------------------------|
D|XX-----------(----------)-xx-1-xxxx-3-xxxx-4-xxxx-3|
A|XX-----------(Pick Slide)-xx-1-xxxx-3-xxxx-4-xxxx-3|
E|XX-----------(----------)-xx-1-xxxx-3-xxxx-4-xxxx-3|

e|---------------------------|--------------|
B|---------------------------|--------------|
G|44444444-------------------|--------------|
D|44444444--3333-5555-0000---|-5-3-5-6-5-3-0|
A|22222222--3333-5555-0000---|-5-3-5-6-5-3-0|
E|----------3333-5555-0000---|-5-3-5-6-5-3-0|

                               VERSE
                              1st Lead
e|---------------------------------------------------------------------------|
B|---------------------------------------------------------------------------|
G|--------------------55555555-----------------------------------------------|x2
D|33333333--22222222--55555555-------------------33333333-44444444-00000000--|
A|33333333--22222222--33333333--4p3-4-5p4-3------33333333-44444444-00000000--|
E|11111111--00000000------------------------6-5--33333333-44444444-00000000--|

                              2nd Lead
e|---------------------------------------------------------------------|
B|---------------------------------------------------------------------|
G|--------------------5555555555555555---------------------------------|x2
D|33333333--22222222--5555555555555555-----33333333-44444444-00000000--|
A|33333333--22222222--3333333333333333-----33333333-44444444-00000000--|
E|33333333--22222222-----------------------33333333-44444444-00000000--|

                                Solo
                              1st Lead
e|--------------------------15-17b(18)-15-17-15------------------|
B|15tr\--15-17-18-17b-17-18--------------------18tr-17-18-17--16b|
G|----------------------------------------------------------18---|
D|---------------------------------------------------------------|
A|---------------------------------------------------------------|
E|---------------------------------------------------------------|

e|------------------------------------------------------17-18-17----15-|
B|15-17-18-17b----------------18------18-17h18p17----18----------18----|
G|-------------18-16-15h16p15----16---------------20-------------------|
D|---------------------------------16----------------------------------|
A|---------------------------------------------------------------------|
E|---------------------------------------------------------------------|
                    background for Chorus & Solo
    x2       x2        x2      x2        x2
e|--------\--------\--------\--------\---------|
B|--------\--------\--------\--------\---------|
G|--------\--------\--------\--------\---------|x5
D|xx0-xx0-\-xx2-xx2\-xx4-xx4\-xx3-xx3\-xx1-xx1-|
A|xx0-xx0-\-xx2-xx2\-xx4-xx4\-xx3-xx3\-xx1-xx1-|
E|xx0-xx0-\-xx0-xx0\-xx2-xx2\-xx3-xx3\-xx1-xx1-|

Repeat Verse
Repeat Chorus

ending:
Em,D,E(sharp),Em
comments
We did not receive enough feedback on this tab! Please rate:
print report bad tab
1 2 3 4 5
I want to post or [tab]
guest
You may want to rate the tab now too:
select rating
Please do not post tabs as comments. Select "correction" instead!