Oops, an error
Loading. Please wait.

The Falling Chaotic - Shake Me Softly Tab

42 views 3 this week
no commentswrite comment
1 2 3 4 5
please rate
add to favorites
launch autoscroll
font size
0
reset
how to read this tab
guitar tuner
Autoscroll
slow
fast
+/-
esc
set tempo
stop
Help us to improve Ultimate-Guitar.com Take our survey!
×
-----------------------------------------------------------------------------
                     Shake me Softy - The Falling Chaotic
-----------------------------------------------------------------------------
Tabbed by: Dagan Robison
Email: coolguy555@yohomie.lame

Tuning: Standard

Brett, this is how the verse riff is played.

e|---------------------------------------------------------------------------|
B|---------------------------------------------------------------------------|
G|--1--------4----2----------------------------------------------------------|
D|-2-2---2--4-4--2-2---------------------------------------------------------|
A|2---2/4--2----0------------------------------------------------------------|
E|---------------------------------------------------------------------------|

And this is how the pre-chorus is played.
e|---------------------------------------------------------------------------|
B|---------------------------------------------------------------------------|
G|--0---0----0---0----0---0----2---4-----------------------------------------|
D|-2-2-2-2--4-4-4-4--2-2-2-2--2-2-4-4--Repeat, dawg.-------------------------|
A|3---3----5---5----3---3----0---2-------------------------------------------|
E|---------------------------------------------------------------------------|

Power chords, bro.
e|---------------------------------------------------------------------------|
B|---------------------------------------------------------------------------|
G|---------777-66666---------------------------------------------------------|
D|77777777-777-66666---------------------------------------------------------|
A|77777777-555-44444---------------------------------------------------------|
E|55555555-------------------------------------------------------------------|

Solo! (That Means You!)(These are the basic notes, mess around, play whatever)
e|-----------------------12--------------------------------------------------|
B|-------------------------15-12---------------------------------------------|
G|------------------------------14-12----------------------------------------|
D|---------------------------------------------------------------------------|
A|---------------------------------------------------------------------------|
E|---------------------------------------------------------------------------|

(Intro Riff)

Shake me softly; I've got to get out of bed.

I've got to show you that there's something left inside of this head.

Shake me softly, show me that you still care;

show me everything that matters and I'll help you repair.

(Pre-Chorus)

The knowledge, the power, the truth of this final hour.

The fallout, we'll crawl out, and we will never cower.

(Second Verse)

Shake me softly; I need to feel like I'm here.

I need to get back to the way I was before they appeared.

I can't take this; one more drink from tonight.

I feel like everything is slipping right in front of my eyes.

Shake me softly; I don't think they are there.

Still there's something laughing at us from the top of the stairs.

They know me; and I know you.

We all know that there's something else that we have to prove.

(Pre-Chorus Again)

(Chorus)

I can feel everything starting to spin.

I can feel it change direction; I can feel it caving in.

One more wrong breath and you're out of this door.

I know I lied about being fine but not anymore.

I need this; I need you.

(Bridge/Solo Instrumental)
The chords here are like this:

E E, A, B B B, A

(Chorus Again)
(Intro Riff Again)
Suggest correction
Give kudos to tab author, rate the tab!
1 2 3 4 5
comments
print report bad tab
guest
You may want to rate the tab now too:
select rating
Please do not post tabs as comments. Select "correction" instead!