Oops, an error
Loading. Please wait.

The Fallout Theory - Dont Show Up Perfect Tab

282 views 1 this week
no commentswrite comment
1 2 3 4 5
excellent!
x 3
add to favorites
launch autoscroll
font size
0
reset
how to read this tab
guitar tuner
Autoscroll
slow
fast
+/-
esc
set tempo
stop
Help us to improve Ultimate-Guitar.com Take our survey!
×
Difficulty
intermediate
-------------------------------------------------------------------------------
                             Don't Show Up Perfect - The Fallout Theory
-------------------------------------------------------------------------------
Tabbed by: Lee Fallout
Email:

Tuning: Dropped D

Intro/Verse
Guitar One : Craig
e|---------------------------------------------------------------------------|
B|---------------------------------------------------------------------------|
G|---------------------------------------------------------------------------|
D|---5--------5------7--------7-----9--------9-------12----------12----------|
A|3-----3--3------5-----5--5-----7-----7--7------10------10--10--------------|
D|---------------------------------------------------------------------------|

Guitar Two : Lee
e|-----14-------------17------------14-----------12--------------------------|
B|---------15-------------15------------15---------------15------------------|
G|-12-------------12------------12-----------12-------12---------------------|
D|---------------------------------------------------------------------------|
A|---------------------------------------------------------------------------|
D|---------------------------------------------------------------------------|

Chorus
Guitar One : Craig
(Pattern below is just a guide, listen to the song for the strumming)
e|---------------------------------------------------------------------------|
B|---------------------------------------------------------------------------|
G|-5-5-5-5-5-----------------------------------------------------------------|
D|-5-5-5-5-5-0-0-0-0-0-2-2-2-2-2-5-5-5-5-5-----------------------------------|
A|-3-3-3-3-3-0-0-0-0-0-2-2-2-2-2-5-5-5-5-5-----------------------------------|
D|-----------0-0-0-0-0-2-2-2-2-2-5-5-5-5-5-----------------------------------|

Guitar Two : Lee
(Lee plays same as above for first half of the chorus then plays this)
e|-14-14-14-14---17-17-17-17---12-12-12-12---14-14-14-14---------------------|
B|-15-15-15-15---15-15-15-15---15-15-15-15---15-15-15-15---------------------|
G|-12-12-12-12---12-12-12-12---12-12-12-12---12-12-12-12---------------------|
D|---------------------------------------------------------------------------|
A|---------------------------------------------------------------------------|
D|---------------------------------------------------------------------------|

Bridge Solo Part
Guitar Two : Lee
e|---------------------------------/-------------------10--------------------|
B|-----------REPEAT X3----------------------/----------------------10--------|
G|-11b-----------------------------/--THEN PLAY--11b---------12--------------|
D|-----12-----------12----12-12----/----------------12-----------------------|
A|--------10-10-10-----10----------/-----------------------------------------|
D|---------------------------------/-----------------------------------------|

Outro Octaves
Guitar Two : Lee
(Strumming pattern not show, listen to the song for timing)
e|---------------------------------------------------------------------------|
B|---------------------------------------------------------------------------|
G|-12-----14-----12----16----------------------------------------------------|
D|---------------------------------------------------------------------------|
A|-10-----12-----10----14----------------------------------------------------|
D|---------------------------------------------------------------------------|

That's the basics of it kids, there a few little differences in the ways myself
and Craig play it but this will give you a good base to start from.

Enjoy


| /  slide up
| \  slide down
| h  hammer-on
| p  pull-off
| ~  vibrato
Suggest correction
Give kudos to tab author, rate the tab!
1 2 3 4 5
comments
print report bad tab
guest
You may want to rate the tab now too:
select rating
Please do not post tabs as comments. Select "correction" instead!