Oops, an error
Loading. Please wait.

The Finkelsteins - Good Life Tab

168 views 1 this week
no commentswrite comment
1 2 3 4 5
please rate
add to favorites
launch autoscroll
font size
0
reset
how to read this tab
guitar tuner
Autoscroll
slow
fast
+/-
esc
set tempo
stop
Help us to improve Ultimate-Guitar.com Take our survey!
×
The finkelsteins – Good life:

Intro:   play this w/light distortion and a bit delay
E|-----------------|
B|-----------------|
G|-----------------|
D|-7---2-----5---0-|
A|-7---2-----5---0-|
E|-5---0-----3-----|

And then w/distortion:
E|-------------------------------------|
B|-------------------------------------|
G|-------------------------------------|
D|-7---2-----5---0-----7---2-----5---7-|
A|-7---2-----5---0-----7---2-----5---5-|
E|-5---0-----3---------5---0-----3-----|

Verse 1:
E|------------------------------------------------|
B|------------------------------------------------|
G|------------------------------------------------|
D|-7-----------(rest is a bassline of the intro)--|
A|-7----------------------------------------------|
E|-5----------------------------------------------|

And then:
E|-------------------------------------|
B|-------------------------------------|
G|-------------------------------------|
D|-7---2-----5---0-----7---2-----5---7-|
A|-7---2-----5---0-----7---2-----5---5-|
E|-5---0-----3---------5---0-----3-----|

E|---------------------------------------|
B|---------------------------------------|
G|---------------------------------------|
D|-7---2-----5---0-----7---2-----5---7~~-|
A|-7---2-----5---0-----7---2-----5---5~~-|
E|-5---0-----3---------5---0-----3-------|

Pre-chorus:
E|---------------------------------------------------------|
B|---------------------------------------------------------|
G|---------------------------------------------------7-7-7-|
D|-------------------------7-7-7-7-7-7-7-2-2-2-5-5-5-7-7-7-|
A|-7-7-7-7-2-2-2-2-5-5-5-5-5-5-5-5-7-7-7-2-2-2-5-5-5-5-5-5-|
E|-5-5-5-5-0-0-0-0-3-3-3-3---------5-5-5-0-0-0-3-3-3-------|
   * * * * * * * * * * * * * * * *

Chorus:
E|---------------------------------|
B|---------------------------------|
G|-5-5-5-5-------------------------|
D|-5-5-5-5-5-5-5-5-3-3-3-3-3-3-3-3-|   x4
A|-3-3-3-3-5-5-5-5-3-3-3-3-3-3-3-3-|
E|---------3-3-3-3-1-1-1-1-1-1-1-1-|

Riff:
E|-------------------------------------|
B|-------------------------------------|
G|-------------------------------------|
D|-7---2-----5---0-----7---2-----5---7-|
A|-7---2-----5---0-----7---2-----5---5-|
E|-5---0-----3---------5---0-----3-----|

Verse 2:
E|-------------------------------------|
B|-------------------------------------|
G|-------------------------------------|
D|-7---2-----5---0-----7---2-----5---7-|   x3
A|-7---2-----5---0-----7---2-----5---5-|
E|-5---0-----3---------5---0-----3-----|

E|---------------------------------------|
B|---------------------------------------|
G|---------------------------------------|
D|-7---2-----5---0-----7---2-----5---7~~-|
A|-7---2-----5---0-----7---2-----5---5~~-|
E|-5---0-----3---------5---0-----3-------|

Repeat pre-chorus

Repeat chorus

Solo: Guitar 1:
E|-------------------------------------------------------------------|
B|-------------------------------------------------------------------|
G|-14v---\---12-11-12-11-12-14v---\---12-11-12-11-12-14v-14v-14v-14v-|
D|-------------------------------------------------------------------|
A|-------------------------------------------------------------------|
E|-------------------------------------------------------------------|

E|-------------------------------------------------|
B|-------------------------------------------------|
G|-14v-14v-14v-14v-14v-14v-14v-14v-14v-14v-14v-14v-|
D|-------------------------------------------------|
A|-------------------------------------------------|
E|-------------------------------------------------|

E|--------|
B|--------|
G|-14vvvv-
D|--------|
A|--------|
E|--------|

Solo: Guitar 2:
E|-------------------------|
B|-------------------------|
G|-------------------7-7-7-|
D|-7-7-7-2-2-2-5-5-5-7-7-7-|   x4
A|-7-7-7-2-2-2-5-5-5-5-5-5-|
E|-5-5-5-0-0-0-3-3-3-------|

E|----
B|----
G|----
D|-7~-
A|-7~-
E|-5~-

Pre-chorus:
E|---------------------------------------------------------------------|
B|---------------------------------------------------------------------|
G|---------------------------------------------------------------7-7-7-|
D|-------------------------------------7-7-7-7-7-7-7-2-2-2-5-5-5-7-7-7-|
A|-------------7-7-7-7-2-2-2-2-5-5-5-5-5-5-5-5-7-7-7-2-2-2-5-5-5-5-5-5-|
E|-------------5-5-5-5-0-0-0-0-3-3-3-3---------5-5-5-0-0-0-3-3-3-------|
               * * * * * * * * * * * * * * * *

Chorus:
E|---------------------------------|
B|---------------------------------|
G|-5-5-5-5-------------------------|
D|-5-5-5-5-5-5-5-5-3-3-3-3-3-3-3-3-|   x6
A|-3-3-3-3-5-5-5-5-3-3-3-3-3-3-3-3-|
E|---------3-3-3-3-1-1-1-1-1-1-1-1-|

E|---
B|---
G|-5-
D|-5-
A|-3-
E|---
Suggest correction
Give kudos to tab author, rate the tab!
1 2 3 4 5
comments
print report bad tab
guest
You may want to rate the tab now too:
select rating
Wanna post a correction for this tab? Suggest correction