Oops, an error
Loading. Please wait.

The Finkelsteins - Loved To Death Tab

87 views 1 this week
no commentswrite comment
1 2 3 4 5
please rate
add to favorites
launch autoscroll
font size
0
reset
how to read this tab
guitar tuner
Tab Pro tools
  • play this tab
  • loop segment
  • change instrument
  • show fretboard
  • metronome
×
Best way to learn
"The Finkelsteins - Loved To Death"
Autoscroll
slow
fast
+/-
esc
set tempo
stop
The finkelsteins – Loved to death:

I'm sorry that i submit this tab for the second time, but it's just such a cool song and 
can't afford to have any mistakes on this tab. so here's the final edited version

Intro:
E|------------------------------------------|
B|------------------------------------------|
G|------------------------------------------|
D|-7-7-x-x----2-2-x-x----4-4-x-x----7-7-x-x-|   x4
A|-7-7-x-x----2-2-x-x----2-2-x-x----5-5-x-x-|
E|-5-5-x-x----0-0-x-x--------x-x--------x-x-|

Verse: play verse clean
E|-----------------------|
B|-----------------------|
G|-14~---9~---11~---7~---|
D|-14~---9~---11~---7~---|   x2
A|-12~---7~---9~~---5~---|
E|-----------------------|

Pre-chorus:
E|---------------------------|
B|---------------------------|
G|---------------------------|
D|-----------------9-9---9-9-|
A|-4-4-4-4-4-4-4-4-7-7---7-7-|
E|-2-2-2-2-2-2-2-2-----------|
   * * * * * * * *

Chorus:
E|------------------------------------------|
B|------------------------------------------|
G|------------------------------------------|
D|-7-7-x-x----2-2-x-x----4-4-x-x----7-7-x-x-|
A|-7-7-x-x----2-2-x-x----2-2-x-x----5-5-x-x-|
E|-5-5-x-x----0-0-x-x--------x-x--------x-x-|

E|---------------------------------------|
B|---------------------------------------|
G|---------------------------------------|
D|-7-7-x-x----2-2-x-x----7-7-7-7-7-7-7-7-|
A|-7-7-x-x----2-2-x-x----5-5-5-5-5-5-5-5-|
E|-5-5-x-x----0-0-x-x--------------------|

E|------------------------------------------|
B|------------------------------------------|
G|------------------------------------------|
D|-7-7-x-x----2-2-x-x----4-4-x-x----7-7-x-x-|
A|-7-7-x-x----2-2-x-x----2-2-x-x----5-5-x-x-|
E|-5-5-x-x----0-0-x-x--------x-x--------x-x-|

E|---------------------------------------|
B|---------------------------------------|
G|---------------------------------------|
D|-7-7-x-x----2-2-x-x----7-7-7-7-7-7-7-7-|
A|-7-7-x-x----2-2-x-x----5-5-5-5-5-5-5-5-|
E|-5-5-x-x----0-0-x-x--------------------|

Riff:
E|---------------------------------|
B|---------------------------------|
G|---------------------------------|
D|-7-7-x-x-x-x-2-2-x-x-x-x-x-x-x-x-|
A|-7-7-x-x-x-x-2-2-x-x-x-x-x-x-x-x-|
E|-5-5-x-x-x-x-0-0-x-x-x-x-x-x-x-x-|

Repeat verse

Pre-chorus:
E|-----------------------------------------------------------|
B|-----------------------------------------------------------|
G|-----------------------------------------------------------|
D|-----------------9-9-9-9-9-9-9-9-7-7-7-7-7-7-7-7-9-9-9-9-9-|
A|-4-4-4-4-4-4-4-4-7-7-7-7-7-7-7-7-5-5-5-5-5-5-5-5-7-7-7-7-7-|
E|-2-2-2-2-2-2-2-2-------------------------------------------|
   * * * * * * * * * * * * * * * * * * * * * * * * * * *


Chorus: Guitar 1:
E|------------------------------------------|
B|------------------------------------------|
G|------------------------------------------|
D|-7-7-x-x----2-2-x-x----4-4-x-x----7-7-x-x-|
A|-7-7-x-x----2-2-x-x----2-2-x-x----5-5-x-x-|
E|-5-5-x-x----0-0-x-x--------x-x--------x-x-|

E|---------------------------------------|
B|---------------------------------------|
G|---------------------------------------|
D|-7-7-x-x----2-2-x-x----7-7-7-7-7-7-7-7-|
A|-7-7-x-x----2-2-x-x----5-5-5-5-5-5-5-5-|
E|-5-5-x-x----0-0-x-x--------------------|

E|------------------------------------------|
B|------------------------------------------|
G|------------------------------------------|
D|-7-7-x-x----2-2-x-x----4-4-x-x----7-7-x-x-|
A|-7-7-x-x----2-2-x-x----2-2-x-x----5-5-x-x-|
E|-5-5-x-x----0-0-x-x--------x-x--------x-x-|

E|---------------------------------------|
B|---------------------------------------|
G|---------------------------------------|
D|-7-7-x-x----2-2-x-x----7-7-7-7-7-7-7-7-|
A|-7-7-x-x----2-2-x-x----5-5-5-5-5-5-5-5-|
E|-5-5-x-x----0-0-x-x--------------------|

Chorus: Guitar 2:
E|-------------------------------------------------------------------|
B|-------------------------------------------------------------------|
G|-9---------------6---------------9---------------------------------|
D|---6-7-9-9-6-7-9---6-7-9-7-6-7-9----6-7-9-9-6-7-9-7-6-7-9-11-6-7-9-|
A|-------------------------------------------------------------------|
E|-------------------------------------------------------------------|

Bridge:
E|-----------------------------------------------------------------|
B|-----------------------------------------------------------------|
G|---------------------------------6-6-6-6-6-9-9-9-----------------|
D|-4-4-4-4-4-2-2-2-7-7-7-7-7-7-7-7-6-6-6-6-6-9-9-9-7-7-7-7-7-7-7-7-|
A|-4-4-4-4-4-2-2-2-7-7-7-7-7-7-7-7-4-4-4-4-4-7-7-7-7-7-7-7-7-7-7-7-|
E|-2-2-2-2-2-0-0-0-5-5-5-5-5-5-5-5-----------------5-5-5-5-5-5-5-5-|

E|---------------------------------------------------------|
B|---------------------------------------------------------|
G|---------------------------------6-6-6-6-6-9-9-9---------|
D|-4-4-4-4-4-2-2-2-7-7-7-7-7-7-7-7-6-6-6-6-6-9-9-9-7~~~----|
A|-4-4-4-4-4-2-2-2-7-7-7-7-7-7-7-7-4-4-4-4-4-7-7-7-7~~~----|
E|-2-2-2-2-2-0-0-0-5-5-5-5-5-5-5-5-----------------5~~~----|

Verse: play verse clean
E|-----------------------|
B|-----------------------|
G|-14~---9~---11~---7~---|
D|-14~---9~---11~---7~---|
A|-12~---7~---9~~---5~---|
E|-----------------------|

Interlude:
E|------------------------------------------|
B|------------------------------------------|
G|------------------------------------------|
D|-7-7-x-x----2-2-x-x----4-4-x-x----7-7-x-x-|   x2
A|-7-7-x-x----2-2-x-x----2-2-x-x----5-5-x-x-|
E|-5-5-x-x----0-0-x-x--------x-x--------x-x-|

Chorus: Guitar 1:
E|------------------------------------------|
B|------------------------------------------|
G|------------------------------------------|
D|-7-7-x-x----2-2-x-x----4-4-x-x----7-7-x-x-|
A|-7-7-x-x----2-2-x-x----2-2-x-x----5-5-x-x-|
E|-5-5-x-x----0-0-x-x--------x-x--------x-x-|

E|---------------------------------------|
B|---------------------------------------|
G|---------------------------------------|
D|-7-7-x-x----2-2-x-x----7-7-7-7-7-7-7-7-|
A|-7-7-x-x----2-2-x-x----5-5-5-5-5-5-5-5-|
E|-5-5-x-x----0-0-x-x--------------------|

E|------------------------------------------|
B|------------------------------------------|
G|------------------------------------------|
D|-7-7-x-x----2-2-x-x----4-4-x-x----7-7-x-x-|
A|-7-7-x-x----2-2-x-x----2-2-x-x----5-5-x-x-|
E|-5-5-x-x----0-0-x-x--------x-x--------x-x-|

E|---------------------------------------|
B|---------------------------------------|
G|---------------------------------------|
D|-7-7-x-x----2-2-x-x----7-7-7-7-7-7-7-7-|
A|-7-7-x-x----2-2-x-x----5-5-5-5-5-5-5-5-|
E|-5-5-x-x----0-0-x-x--------------------|

Chorus: Guitar 2:
E|-------------------------------------------------------------------|
B|-------------------------------------------------------------------|
G|-9---------------6---------------9---------------------------------|
D|---6-7-9-9-6-7-9---6-7-9-7-6-7-9----6-7-9-9-6-7-9-7-6-7-9-11-6-7-9-|
A|-------------------------------------------------------------------|
E|-------------------------------------------------------------------|

E|-------------------------------------------------------------------|
B|-------------------------------------------------------------------|
G|-9---------------6---------------9---------------------------------|
D|---6-7-9-9-6-7-9---6-7-9-7-6-7-9----6-7-9-9-6-7-9-7-6-7-9-11-6-7-9-|
A|-------------------------------------------------------------------|
E|-------------------------------------------------------------------|

Chorus continued:
E|---------------------------------|
B|---------------------------------|
G|-----------------4-4-4-4-7-7-7-7-|
D|-7-7-7-7-2-2-2-2-4-4-4-4-7-7-7-7-|   x2
A|-7-7-7-7-2-2-2-2-2-2-2-2-5-5-5-5-|
E|-5-5-5-5-0-0-0-0-----------------|

E|-------------------------------------|
B|-------------------------------------|
G|-----------------4-4-4-4-------------|
D|-7-7-7-7-2-2-2-2-4-4-4-4-7--9--6--5~-|
A|-7-7-7-7-2-2-2-2-2-2-2-2-5--7--6--5~-|
E|-5-5-5-5-0-0-0-0---------------4--3~-|
comments
We did not receive enough feedback on this tab! Please rate:
print report bad tab
1 2 3 4 5
I want to post or [tab]
guest
You may want to rate the tab now too:
select rating
Please do not post tabs as comments. Select "correction" instead!