Oops, an error
Loading. Please wait.

The Fire Restart - A Secret Worth Keeping Tab

1,090 views 1 this week
1 commentread comment
1 2 3 4 5
please rate
add to favorites
launch autoscroll
font size
0
reset
how to read this tab
guitar tuner
Autoscroll
slow
fast
+/-
esc
set tempo
stop
Help us to improve Ultimate-Guitar.com Take our survey!
×
Author
Difficulty
novice
the fire restart
a secret worth keeping

great band. great song. the rythem part is solid but the lead is kinda shaky. -zeb

tuning- drop D

. - palm mute
h - hammer on
p - pull off
/ - slide up
\ - slide down
x - mute string
~ - hold note


Rhythm guitar:

Intro
|-----------------------------------------------------------------|
|-----------------------------------------------------------------|
|-----------------------------------------------------------------|
|-4444444444444444-7777777777777777-0000000000000000-22222222-2~--|
|-4444444444444444-7777777777777777-0000000000000000-22222222-2~--|
|-4444444444444444-7777777777777777-0000000000000000-22222222-2~--|
  ................ ................ ................ ........

pre-verse
|---------------------------------------------------------------------|
|---------------------------------------------------------------------|
|---------------------------------------------------------------------|
|-4444444444444444-0000000000000000-7777777777777777-9999999999999999-|
|-4444444444444444-0000000000000000-7777777777777777-9999999999999999-|
|-4444444444444444-0000000000000000-7777777777777777-9999999999999999-|

verse
|--------------------------------------------------------------------|
|--------------------------------------------------------------------|
|--------------------------------------------------------------------|
|-x4~--7~-9~--2~--4444444444444444-0000000000000000-7777777777777777-|
|-x4~--7~-7~--2~--4444444444444444-0000000000000000-7777777777777777-|
|-x4~--7~-7~--2~--4444444444444444-0000000000000000-7777777777777777-|

------------------|
------------------|
------------------|
-2222222222222222-|
-2222222222222222-|
-2222222222222222-|

chorus (play twice)
|---------------------------------------------------------------------|
|---------------------------------------------------------------------|
|------------------6666666666666666-7777777777777777------------------|
|-4444444444444444-6666666666666666-7777777777777777-7777777722222222-|
|-4444444444444444-4444444444444444-5555555555555555-7777777722222222-|
|-4444444444444444-----------------------------------7777777722222222-|


pre verse 2
(for best effect on this part hit the open D5 then slide up the neck to about the 10th 
then back down to the 4th and hit the next two f#5 chords.)
|----------------------------------|
|----------------------------------|
|----------------------------------|
|-44----44-0/-44--7777777722222222-|
|-44----44-0/-44--7777777722222222-|
|-44----44-0/-44--7777777722222222-|


Verse 2 (play twice)
|---------------------------------------------------------------------|
|---------------------------------------------------------------------|
|---------------------------------------------------------------------|
|-4444444444444444-0000000000000000-7777777777777777-9999999999999999-|
|-4444444444444444-0000000000000000-7777777777777777-9999999999999999-|
|-4444444444444444-0000000000000000-7777777777777777-9999999999999999-|


chorus (play twice)
|---------------------------------------------------------------------|
|---------------------------------------------------------------------|
|------------------6666666666666666-7777777777777777------------------|
|-4444444444444444-6666666666666666-7777777777777777-7777777722222222-|
|-4444444444444444-4444444444444444-5555555555555555-7777777722222222-|
|-4444444444444444-----------------------------------7777777722222222-|

breakdown
|---------------------------------------------|
|---------------------------------------------|
|---------------------------------------------|
|-44-44-0000-44-44-0~-44-44-0-7-4-0-7-4-2-0~--|
|-44-44-0000-44-44-0~-44-44-0-7-4-0-7-4-2-0~--|
|-44-44-0000-44-44-0~-44-44-0-7-4-0-7-4-2-0~--|

bridge (play twice)
|---------------------------------------------------------------------|
|---------------------------------------------------------------------|
|---------------------------------------------------------------------|
|-4444444444444444-0000000000000000-7777777777777777-9999999999999999-|
|-4444444444444444-0000000000000000-7777777777777777-9999999999999999-|
|-4444444444444444-0000000000000000-7777777777777777-9999999999999999-|


chorus (play twice)
|---------------------------------------------------------------------|
|---------------------------------------------------------------------|
|------------------6666666666666666-7777777777777777------------------|
|-4444444444444444-6666666666666666-7777777777777777-7777777722222222-|
|-4444444444444444-4444444444444444-5555555555555555-7777777722222222-|
|-4444444444444444-----------------------------------7777777722222222-|

end on
|-----|
|-----|
|-----|
|-0~~-|
|-0~~-|
|-0~~-|

Lead guitar:

Perverse
|---------------------------------------------------------------|
|---9h10p9-5-5-7-5-3-5--9h10p9-5-5-7-5-3-5--9h10p9-5-5-7-5-3-5--|
|---------------------------------------------------------------|
|---------------------------------------------------------------|
|---------------------------------------------------------------|
|---------------------------------------------------------------|

----------------------------------------------------------------|
--9h10p9-7-5-7-3--9h10p9-5-5-7-5-3-5--9h10p9-5-5-7-5-3-5--------|
----------------------------------------------------------------|
----------------------------------------------------------------|
----------------------------------------------------------------|
----------------------------------------------------------------|

---------------------------------------------------------------|
--10t9t7-12t9t7-10t9t7-12t9t7-10t9t7-12t9t7--/17-17~-----------|
---------------------------------------------------------------|
---------------------------------------------------------------|
---------------------------------------------------------------|
---------------------------------------------------------------|

chorus:
|---------------------------------------------------------------------|
|---------------------------------------------------------------------|
|------------------6666666666666666-7777777777777777------------------|
|-4444444444444444-xxxxxxxxxxxxxxxx-xxxxxxxxxxxxxxxx-7777777722222222-|
|-xxxxxxxxxxxxxxxx-4444444444444444-5555555555555555-xxxxxxxxxxxxxxxx-|
|-4444444444444444-----------------------------------7777777722222222-|

Bridge
|----------------------------------------------------------------------|
|-10-7-9-------10-7-9-------------10-7-9-------10-7-9-12b13r12-10-9-10-|
|--------7-6----------7-6-6h7p6----------7-6---------------------------|
|----------------------------------------------------------------------|
|----------------------------------------------------------------------|
|----------------------------------------------------------------------|

---------------|
--9-7-9-7------|
----------7-6--|
---------------|
---------------|
---------------|
Suggest correction
What's this?
You can suggest a correction to this tab. Community and Mods will review your correction and vote to approve or reject it.
comments
We did not receive enough feedback on this tab! Please rate:
print report bad tab
1 2 3 4 5
1 comment total.
0 reply
KilljoyBassist 283 wrote on August 22 2013, 09:32 am

For the intro, just move up a string

|-4-5-4-0-2-0---0-----
|-------------2------
|--------------------
|--------------------
|--------------------
|--------------------
your smart people, figure the rest out

guest
You may want to rate the tab now too:
select rating
Please do not post tabs as comments. Select "correction" instead!