Oops, an error
Loading. Please wait.

The Firecrackers - Straight Jacket Rock Tab

29 views 1 this week
no commentswrite comment
1 2 3 4 5
3 more votes to show rating
add to favorites
launch autoscroll
font size
0
reset
how to read this tab
guitar tuner
Autoscroll
slow
fast
+/-
esc
set tempo
stop
Help us to improve Ultimate-Guitar.com Take our survey!
×
Author
Difficulty
intermediate
This song was written by The Firecrackers.
You can contact us at thefirecrackers@hotmail.com.
Thanks!

INTRO:
e|-----------------------------------------------------------------|
B|-----------------------------------------------------------------|
G|-7-7-7-7-7-7-7-7-7-7-7-7-7-7-7-7-7-7-7-7-7-7-7-7-7-7-7-7-7-7-7-7-|
D|-9-9-9-8-8-8-9-9-9-8-8-8-9-9-8-8-9-9-9-8-8-8-9-9-9-8-8-8-9-8-9-8-| x2 
A|-----------------------------------------------------------------|
E|-----------------------------------------------------------------|

(Play the intro riff throughout)

In my cushioned room
Its really not that bad
Just me in my cushioned room
(Yelled) The place where I went mad!

VERSE:
e|--------------------------|
B|--------------------------|
G|------------------9-9-9---|
D|-9-9-9-9-9-7--7-7-9-9-9---| 
A|-9-9-9-9-9-7--7-7-7-7-7---|
E|-7-7-0-7-0-5--5-5---------|

As the nice young fellows in white haul me around
I laugh and I joke and I make nasty sounds
Then as their bodies hit the ground
I sing this song

CHORUS:
(Play the verse riff)

I'm mad and I'm proud
I've seen things that shouldn't be allowed
I'm psycho and I don't care
They keep telling that my case is "rare"
No, No really
No, No really
No, No really
No really

BUILD:
e|--------------------------------------|
B|--------------------------------------|
G|--------------------------------------|
D|-55555555-77777777-9999999999999999---|
A|-55555555-77777777-9999999999999999---|
E|-33333333-55555555-7777777777777777---|

This straight jacket keeps me quite warm

SOLO:
e|-------------------------------------------------------------------|
B|-----------------------------------7----7--------------------------|
G|--------7-9-9b11-11rb9-7h9p7---7-9-9b11---9-7-9p7------------9-7---|
D|-9--9-9----------------------9--------------------9--9-9-7-9-------| x2
A|-------------------------------------------------------------------|
E|-------------------------------------------------------------------|

REPEAT CHORUS

END
Suggest correction
Give kudos to tab author, rate the tab!
1 2 3 4 5
comments
print report bad tab
guest
You may want to rate the tab now too:
select rating
Wanna post a correction for this tab? Suggest correction