Oops, an error
Loading. Please wait.

The First - Sit Tight Tab

1,649 views 1 this week
2 commentsread comments
1 2 3 4 5
2 more votes to show rating
add to favorites
launch autoscroll
font size
0
reset
how to read this tab
guitar tuner
Autoscroll
slow
fast
+/-
esc
set tempo
stop
Help us to improve Ultimate-Guitar.com Take our survey!
×
Author
Title: Sit Tight
Artist: The First
Album: Swimming With Sharks(2010)

Tabbed by: angeluskai@hotmail.com

Tuning: Drop D-DADGBe

*******NOTE*******
If you have any corrections or additions (fillers, etc.) please leave a
comment. This is a really great band and i'm surprised they aren't well
known. You should really check out the album and acoustic version. Enjoy!

INTRO

Guitar 1
e:-----|
B:-----|
G:-----|
D:--8--|(x64)
A:--x--|
D:--8--|

e:---------------------------------------------------------------|
B:---------------------------------------------------------------|
G:--------6---6-8-------6---6---6-5-------6---6--8-6-6-6-5-5-----|
D:--8-8-8---8-----8-8-8---8---8-----4-4-4---4----------------6-8-|(x4)
A:---------------------------------------------------------------|
D:---------------------------------------------------------------|

Guitar 2
e:-----------|      e:------------------------------------|     e:-----------|
B:-----------|      B:------------------------------------|     B:-----------|
G:-----------|      G:------------------------------------|     G:-----------|
D:--4--6--8--|(x2)  D:--4--6--6--/8--6--/8--6--/8--6--/8--|(x2) D:--8--6--4--|(x4)
A:--4--6--8--|      A:--4--6--6--/8--6--/8--6--/8--6--/8--|     A:--8--6--4--|
D:--4--6--8--|      D:--4--6--6--/8--6--/8--6--/8--6--/8--|     D:--8--6--4--|


VERSE
e:------|
B:--11--|
G:--10--|
D:------|(x64)
A:------|
D:------|


PRE-CHORUS
e:-----------------------------------------|
B:-----------------------------------------|
G:-----6--------6--5--5-6-5-------6--5--6--|
D:--4--6--4--4--x--x--------6--4--x--x--x--|
A:--4--4--4--4--4--3-----------4--4--3--4--|
D:--4-----4--4-----------------4-----------|


CHORUS

Guitar 1 (1:31)
e:------------|
B:--------11--|
G:------------|
D:--10-11-----|
A:------------|
D:------------|

Guitar 2
e:----------------    -----------|
B:----------------    -----------|
G:-----10---------    -----------|
D:--8--10--11--6--(x2)--8--4--6--|(x2)
A:--8---8--11--6--    --8--4--6--|
D:--8------11--6--    --8--4--6--|


POST-CHORUS
e:--------|
B:--------|
G:--------|
D:--8--6--|(X3)
A:--8--6--|
D:--8--6--|


VERSE 2
e:-------------------------------------------------------------------|
B:-------------------------------------------------------------------|
G:-------------------------------------------------------------------|
D:-------------------------------------------------------------------|(x2)
A:----8---8---8---8---8---8---8---8---4---4---4---4---6---6---6---6--|
D:--8---8---8---8---8---8---8---8---4---4---4---4---6---6---6---6----|
    * * * * * * * * * * * * * * * * * * * * * * * * * * * * * * * *

e:----------------------------|
B:----------------------------|
G:-----10-----10-----6-----8--|
D:--8---8--8---8--4--4--6--6--|(x2)
A:--8---8--8---8--4--4--6--6--|
D:--8---8--8---8--4--4--6--6--|


PRE-CHORUS
e:-----------------------------------------|
B:-----------------------------------------|
G:-----6--------6--5--5-6-5-------6--5--6--|
D:--4--6--4--4--x--x--------6--4--x--x--x--|
A:--4--4--4--4--4--3-----------4--4--3--4--|
D:--4-----4--4-----------------4-----------|


CHORUS

Guitar 1 (1:31)
e:------------|
B:--------11--|
G:------------|
D:--10-11-----|
A:------------|
D:------------|

Guitar 2
e:---------------    -----------|
B:---------------    -----------|
G:----10---------    -----------|
D:--8-10--11--6--(x2)--8--4--6--|(x2)
A:--8--8--11--6--    --8--4--6--|
D:--8-----11--6--    --8--4--6--|


BRIDGE
e:------------|    e:---------  ------------------------|
B:------------|    B:---------  ------------------------|
G:--10--6--8--|    G:---------  --------------------10--|
D:---8--4--6--|(x5)D:--8------  --8--11--10--8--11--10--|
A:---8--4--6--|    A:--8(x32)-  --8--11--10--8--11---8--|(x2)
D:---8--4--6--|    D:--8------  --8--11--10--8--11------|

PLAY CHORUS

************************************

| /   slide
| *   palm mute

************************************
Suggest correction
Give kudos to tab author, rate the tab!
1 2 3 4 5
comments
print report bad tab
2 comments total.
0 reply
DysterRange113 10 Feb 05, 2013 08:32 PM

I think the bridge is more like this

e| ---------------------------------------------
B| ---------------------------------------------
G| -10-------6--8--10---------------------------
D| -8--(x1)--4--6--8----(x5)--------------------
A| -8--------4--6--8----------------------------
D| -8--------4--6--8----------------------------

just my view on it sounds like that way besides that really nice job, 4.5*

0 reply
DysterRange113 10 Feb 05, 2013 08:32 PM

I think the bridge is more like this

e| ---------------------------------------------
B| ---------------------------------------------
G| -10-------6--8--10---------------------------
D| -8--(x1)--4--6--8----(x5)--------------------
A| -8--------4--6--8----------------------------
D| -8--------4--6--8----------------------------

just my view on it sounds like that way besides that really nice job, 4.5*

guest
You may want to rate the tab now too:
select rating
Wanna post a correction for this tab? Suggest correction