Oops, an error
Loading. Please wait.

The Fleas - Something Or Nothing Tab

52 views 1 this week
no commentswrite comment
1 2 3 4 5
please rate
add to favorites
launch autoscroll
font size
0
reset
how to read this tab
guitar tuner
Tab Pro tools
  • play this tab
  • loop segment
  • change instrument
  • show fretboard
  • metronome
Autoscroll
slow
fast
+/-
esc
set tempo
stop
Contributor
Something Or Nothing – The Fleas.   Guitar line by Nigel Russell.

Listen to the song at www.myspace.com/thefleasplease , to hear where the lead 
guitar parts come in.

>Slide up   11--13--13 11 9 11 9---11 11 11 9 9--------9 11 11 11>13 9|
D|----9>11---------------------------------------- 9>11----------------|
A|---------------------------------------------------------------------|
E|---------------------------------------------------------------------|

E|------------------------|
B|------------------------|
G|--13\11 9ho11 11--------|
D|------------------------|
A|------------------------|
E|------------------------|

Verses 1 & 2                                       (no lead part in bridge 1)
E|--------------------------------------------|
B|--------------------------------------------|
G|-11 11 11 9 9 -----9 11 11 11 13 9 ------9--|
D|--------------9>11------------------9>11----|
A|--------------------------------------------|
E|--------------------------------------------|

Chorus 1 & 2
E|------------------------10---------------------------------------------|
B|-----------------------------------------------------------------------|
G|-----9>11 13-------9>11 -----------------------------------------------|
D|-9>11--------- 9>11----------11 9 7 9 7 9 10 9 7 9 7---6 7 6---9 8 7---|
A|-----------------------------------------------------------------------|
E|-----------------------------------------------------------------------|

Bridge 2
E|----------------------------------------------------------------12-----|
B|-----------------------------------------------12----14 12 14----------|
G|----11 11 11 11 11 10 9 ----- 9 11 9 11 9 11>13----13------------------|
D|----------------------- 9>11-------------------------------------------|
A|-----------------------------------------------------------------------|
E|-----------------------------------------------------------------------|

E|------16\14 12 14/16---|
B|-----------------------|
G|-----------------------|
D|-----------------------|
A|-----------------------|
E|-----------------------|

2nd section                                                ...to the bridge
E|12 11 10 9----------------------------------------------------- 12 14 16-|
B|----------12 11 10 9-------------------------------12 12--12 13----------|
G|--------------------12 11 10 9 }x2 -----------9 11------14---------------|
D|------------------------------------9 9--9 10----------------------------|
A|---------------------------------------12--------------------------------|
E|-------------------------------------------------------------------------|

Chorus 3 ...and you can hide
E|--------------------------------------------------------------|
B|------12--------------------------------------------------12--|
G|-11/13--13\11 9ho11 9  11po9 11/12 11 9 11 9  11 9  11/13 ----|
D|--------------------------------------------------------------|
A|--------------------------------------------------------------|
E|--------------------------------------------------------------|

E|----------12 12 12-|
B|-12 11 10 10 12 12-|
G|-13 12 11 11 11 11-|
D|-------------------|
A|-------------------|
E|-------------------|


E|12 11 10 9--------------------------------------------------------12 14 12-|
B|----------12 11 10 9--------------------------------12 12 14 12 14---------|
G|--------------------12 11 10 9-----9 11 9 11 9 11>13-----------------------|
D|-------------------------------9>11----------------------------------------|
A|---------------------------------------------------------------------------|
E|---------------------------------------------------------------------------|

E|14/15\14 12 14 12 11  11 10 9---------------------------------------12---|
B|------------------------------12 12 11 10----------------------12--------|
G|------------------------------13 13 12 11------------9 11 11>13--13------|
D|--------------------------------------------9 9--9 10--------------------|
A|-----------------------------------------------12------------------------|
E|-------------------------------------------------------------------------|
comments
We did not receive enough feedback on this tab! Please rate:
print report bad tab
1 2 3 4 5
I want to post or [tab]
guest
You may want to rate the tab now too:
select rating
Please do not post tabs as comments. Select "correction" instead!