Oops, an error
Loading. Please wait.

The Framework - Blues Thingy Tab

161 views 1 this week
no commentswrite comment
1 2 3 4 5
please rate
add to favorites
launch autoscroll
font size
0
reset
how to read this tab
guitar tuner
Autoscroll
slow
fast
+/-
esc
set tempo
stop
Help us to improve Ultimate-Guitar.com Take our survey!
×
Author
Difficulty
intermediate
My guitar teacher taught me this one a while back, i thinks it's really fun

|------------------|------------------|--------------------------|
|------------------|------------------|--------------------------|
|------------------|------------------|--------------------------|
|------------------|------------------|-1s2-2-2-2-2-2-2p0--------|
|-2-2-4-4-2-2-----2|-2-2-4-4-2-2-----2|------------------2--1p0--|
|-0-0-0-0-0-0-3h4--|-0-0-0-0-0-0-3h4--|------------------------3-|

|-------0----------|-------------------|---0-0-0-----------------|
|------0--3--------|-------------------|-3s5-5-5-3p0-------------|
|---0h1------------|-------------------|------------2-2p0---0----|
|------------------|-2-2-4-4-2-2-----2-|------------------2------|
|--------------2-1-|-0-0-0-0-0-0-3h4---|-------------------------|
|-0----------------|-------------------|-------------------------|

|------------------------|----------------|----------------------|
|---2s3-3-3--3-3-3-5p3---|----------------|----------------------|
|---3s4-4-4--4-4-4-----4-|--2p0-----------|-----4p2---2-4~~~-----|
|-2----------------------|-----2----0-2---|-4-4-----4------------|
|------------------------|-------1s2------|-2-2------------------|
|------------------------|--------------0-|----------------------|

|--3-3-3p0--------------|---4---3---2--|-0-----------------------|
|----------3-0h3p0------|--------------|-0--------0-0------------|
|------------------2p0--|--4-4-3-3-2-2-|-1--------2-2------------|
|---------------------2-|--------------|----------1-1------------|
|-0---------------------|--------------|---0----1-2-2------------|
|-----------------------|-0------------|-------------------------|

h=hammer on
p=pull off
s=slide

that's it, repeat it as many times as you would like, email me if ya got any problemo's

Suggest correction
Give kudos to tab author, rate the tab!
1 2 3 4 5
comments
print report bad tab
guest
You may want to rate the tab now too:
select rating
Wanna post a correction for this tab? Suggest correction