Oops, an error
Loading. Please wait.

The Hoffs - Cocooned bass

53 views 1 this week
no commentswrite comment
1 2 3 4 5
3 more votes to show rating
add to favorites
×
Save as Personal and add changes to this tab that will be seen only by you. Learn more ›
×
You can save this tab as Personal to edit and correct it or add notes. All changes will be seen only by you. Learn more »
launch autoscroll
font size
0
reset
guitar tuner
edit
Autoscroll
slow
fast
+/-
esc
set tempo
stop
Author
Difficulty
The Hoffs
Cocooned
Bass Tab


This is a song by my old band The Hoffs, I know everyone says this but it really is the
tab I've done so dont rip me a new one. You'll never have heard this song and you
never will cos we split up, still it's a kick ass bass line to play and it's even got a 
that doesn't totally suck like most other bass solos (even if I do say so myself). Just
around with it play how u want!

Moderate Speed

Intro

G|-------------------------------------------------------------------------|
D|--------------------------------------------2\\\\\\\\\\\\\\\\------------|
A|-----------------------5h7-----------------------------------------------|
E|-12///////0-(let ring)--------0--(let ring)------------------------------|


Main Riff

G|--------------------11h12p12----------------------|
D|--14-14-14--14-12h14--------14 12-----------------|   X3
A|-----------------------------------14p12h14-------|
E|--------------------------------------------------|


G|--------------------------------------------------|
D|--14-14-14--14-12h14-------------12h14------------|   X1
A|---------------------------12h14-------11h12------|
E|---------------------12h14------------------------|


Chorus

G|----------------------------------------------------------------------|
D|----------------------------------------------------------------------|
A|-------------------------------------9-8-7-5-4-5h7-----9-8-7-5-4------|
E|--3-3333-3-33//7-7777-7-77-\\-0-00--0-0-0-0-0------0-00-0-0-0-0-10\\--|

Play Chorus X2


Solo

G|----------------------------111211---------------------------------------|
D|-141414-14-141414141414-1214------1412---------------------------1214----|
A|--------------------------------------14121412p11h12p11----111214--------|
E|-------------------------------------------------------1214--------------|

G|-11h12p12-------------------------------------1112111412111211-----------|
D|----------14121412------------------------1214----------------1412-------|
A|------------------14121412111211----111214------------------------1412---|
E|--------------------------------1214-------------------------------------|

G|----------------------------------------------------------------11h12p11|
D|------------------121412-14p12h14b-1412---------------------1214--------|
A|11h12p11----111214----------------------1412111211----1112-14-----------|
E|--------1214--------------------------------------1214------------------|

G|-1412111211--11----------------------------------------------------------|
D|-----------14--1412--12---------------12h14------12h14p12----------------|
A|-------------------14--141211----11h12-------------------12h14-12p10-----|
E|-----------------------------1214------------------------------------12--|

Let the last note ring out and have as much fun playing it as i did

            
            
Suggest correction
Creating personal tab
Creating personal tab
You can edit any tab online and save it as your Personal.

You can edit, replace or remove any tab part or add personal notes – all changes will be seen only by you.

Personal tabs can be accessed anytime from any device, even offline.
Learn more »
Give kudos to tab author, rate the tab!
1 2 3 4 5
comments
print report bad tab
guest
You may want to rate the tab now too:
select rating
Wanna post a correction for this tab? Suggest correction