Oops, an error
Loading. Please wait.

The Leadoff - I Need You Now bass

1,580 views 1 this week
no commentswrite comment
1 2 3 4 5
3 more votes to show rating
add to favorites
×
Save as Personal and add changes to this tab that will be seen only by you. Learn more ›
×
You can save this tab as Personal to edit and correct it or add notes. All changes will be seen only by you. Learn more »
launch autoscroll
font size
0
reset
guitar tuner
edit
Autoscroll
slow
fast
+/-
esc
set tempo
stop
Author
Difficulty
100% correct!!


Intro:(Guitar, 2 measures)
G--------------------------------------------------------------------------|
D--------------------------------2-3-3-3-3-3-3-3-3-3-3-3-3-3-3-3-3---------|
A-3-3-3-3-3-3-3-3-3-3-3-3-3-3-3-3------------------------------------------|
E--------------------------------------------------------------------------|

G--------------------------------------------------------------------------|
D--------------------------------------------------------------------------|
A-0-0-0-0-0-0-0-0-0-0-0-0-0-0-0-0------------------------------------------|
E--------------------------------3-3-3-3-3-3-3-3-3-3-3-3-3-3-3-3-----------|

G--------------------------------------------------------------------------|
D--------------------------------2-3-3-3-3-3-3-3-3-3-3-3-3-3-3-3-3---------|
A-3-3-3-3-3-3-3-3-3-3-3-3-3-3-3-3------------------------------------------|
E--------------------------------------------------------------------------|

G--------------------------------------------------------------------------|
D--------------------------------------------------------------------------|
A-0-0-0-0-0-0-0-0-0-0-0-0-0-0-0-0------------------------------------------|
E--------------------------------3-3-3-3-3-3-3-3-3-3-3-3-3-3-3-3-----------|

Verse:

G--------------------------------------------------------------------------|
D--------------------------------------------------------------------------|
A-3-3-3-3-3-3-3-3-3-3-3-3-3-3-3-3-5-5-5-5-5-5-5-5-5-5-5-5-5-5-5-5----------|
E--------------------------------------------------------------------------|

G--------------------------------------------------------------------------|
D--------------------------------------------------------------------------|
A-3-3-3-3-3-3-3-3-3-3-3-3-3-3-3-3------------------------------------------|
E--------------------------------1-1-1-1-1-1-1-1-3-3-3-3-3-3-3-3-----------|

G--------------------------------------------------------------------------|
D--------------------------------------------------------------------------|
A-3-3-3-3-3-3-3-3-3-3-3-3-3-3-3-3-5-5-5-5-5-5-5-5-5-5-5-5-5-5-5-5----------|
E--------------------------------------------------------------------------|

G--------------------------------------------------------------------------|
D--------------------------------------------------------------------------|
A-3-3-3-3-3-3-3-3-3-3-3-3-3-3-3-3------------------------------------------|
E--------------------------------1-1-1-1-1-1-1-1-3-3-3-3-3-3-3-3-----------|

Chorus:

G--------------------------------------------------------------------------|
D--------------------------------2-3-3-3-3-3-3-3-3-3-3-3-3-3-3-3-3---------|
A-3-3-3-3-3-3-3-3-3-3-3-3-3-3-3-3------------------------------------------|
E--------------------------------------------------------------------------|

G--------------------------------------------------------------------------|
D--------------------------------------------------------------------------|
A-0-0-0-0-0-0-0-0-0-0-0-0-0-0-0-0------------------------------------------|
E--------------------------------3-3-3-3-3-3-3-3-3-3-3-3-3-3-3-3-----------|

G--------------------------------------------------------------------------|
D--------------------------------2-3-3-3-3-3-3-3-3-3-3-3-3-3-3-3-3---------|
A-3-3-3-3-3-3-3-3-3-3-3-3-3-3-3-3------------------------------------------|
E--------------------------------------------------------------------------|

G--------------------------------------------------------------------------|
D--------------------------------------------------------------------------|
A-0-0-0-0-0-0-0-0-0-0-0-0-0-0-0-0------------------------------------------|
E--------------------------------3-3-3-3-3-3-3-3-3-3-3-3-3-3-3-3-----------|

Verse:

G--------------------------------------------------------------------------|
D--------------------------------------------------------------------------|
A-3-3-3-3-3-3-3-3-3-3-3-3-3-3-3-3-5-5-5-5-5-5-5-5-5-5-5-5-5-5-5-5----------|
E--------------------------------------------------------------------------|

G--------------------------------------------------------------------------|
D--------------------------------------------------------------------------|
A-3-3-3-3-3-3-3-3-3-3-3-3-3-3-3-3------------------------------------------|
E--------------------------------1-1-1-1-1-1-1-1-3-3-3-3-3-3-3-3-----------|

G--------------------------------------------------------------------------|
D--------------------------------------------------------------------------|
A-3-3-3-3-3-3-3-3-3-3-3-3-3-3-3-3-5-5-5-5-5-5-5-5-5-5-5-5-5-5-5-5----------|
E--------------------------------------------------------------------------|

G--------------------------------------------------------------------------|
D--------------------------------------------------------------------------|
A-3-3-3-3-3-3-3-3-3-3-3-3-3-3-3-3------------------------------------------|
E--------------------------------1-1-1-1-1-1-1-1-3-3-3-3-3-3-3-3-----------|


Chorus:

G--------------------------------------------------------------------------|
D--------------------------------2-3-3-3-3-3-3-3-3-3-3-3-3-3-3-3-3---------|
A-3-3-3-3-3-3-3-3-3-3-3-3-3-3-3-3------------------------------------------|
E--------------------------------------------------------------------------|

G--------------------------------------------------------------------------|
D--------------------------------------------------------------------------|
A-0-0-0-0-0-0-0-0-0-0-0-0-0-0-0-0------------------------------------------|
E--------------------------------3-3-3-3-3-3-3-3-3-3-3-3-3-3-3-3-----------|

G--------------------------------------------------------------------------|
D--------------------------------2-3-3-3-3-3-3-3-3-3-3-3-3-3-3-3-3---------|
A-3-3-3-3-3-3-3-3-3-3-3-3-3-3-3-3------------------------------------------|
E--------------------------------------------------------------------------|

G--------------------------------------------------------------------------|
D--------------------------------------------------------------------------|
A-0-0-0-0-0-0-0-0-0-0-0-0-0-0-0-0------------------------------------------|
E--------------------------------3-3-3-3-3-3-3-3-3-3-3-3-3-3-3-3-----------|

Interlude: X4

G------------|
D-5~3~2~0~---|
A------------|
E------------|


Outro:

G--------------------------------------------------------------------------|
D--------------------------------2-3-3-3-3-3-3-3-3-3-3-3-3-3-3-3-3---------|
A-3-3-3-3-3-3-3-3-3-3-3-3-3-3-3-3------------------------------------------|
E--------------------------------------------------------------------------|

G--------------------------------------------------------------------------|
D--------------------------------------------------------------------------|
A-0-0-0-0-0-0-0-0-0-0-0-0-0-0-0-0------------------------------------------|
E--------------------------------3-3-3-3-3-3-3-3-3-3-3-3-3-3-3-3-----------|

G--------------------------------------------------------------------------|
D--------------------------------2-3-3-3-3-3-3-3-3-3-3-3-3-3-3-3-3---------|
A-3-3-3-3-3-3-3-3-3-3-3-3-3-3-3-3------------------------------------------|
E--------------------------------------------------------------------------|

G--------------------------------------------------------------------------|
D--------------------------------------------------------------------------|
A-0-0-0-0-0-0-0-0-0-0-0-0-0-0-0-0------------------------------------------|
E--------------------------------3-3-3-3-3-3-3-3-3-3-3-3-3-3-3-3-----------|

G--------------------------------------------------------------------------|
D--------------------------------2-3-3-3-3-3-3-3-3-3-3-3-3-3-3-3-3---------|
A-3-3-3-3-3-3-3-3-3-3-3-3-3-3-3-3------------------------------------------|
E--------------------------------------------------------------------------|

G--------------------------------------------------------------------------|
D--------------------------------------------------------------------------|
A-0-0-0-0-0-0-0-0-0-0-0-0-0-0-0-0------------------------------------------|
E--------------------------------3-3-3-3-3-3-3-3-3-3-3-3-3-3-3-3-----------|

G--------------------------------------------------------------------------|
D--------------------------------2-3-3-3-3-3-3-3-3-3-3-3-3-3-3-3-3---------|
A-3-3-3-3-3-3-3-3-3-3-3-3-3-3-3-3------------------------------------------|
E--------------------------------------------------------------------------|

G--------------------------------------------------------------------------|
D--------------------------------------------------------------------------|
A-0-0-0-0-0-0-0-0-0-0-0-0-0-0-0-0------------------------------------------|
E--------------------------------3-3-3-3-3-3-3-3-3-3-3-3-3-3-3-3-----------|

End on:

G---------|
D---------|
A---3~~~~~|
E---------|



            
            
Suggest correction
Creating personal tab
Creating personal tab
You can edit any tab online and save it as your Personal.

You can edit, replace or remove any tab part or add personal notes – all changes will be seen only by you.

Personal tabs can be accessed anytime from any device, even offline.
Learn more »
Give kudos to tab author, rate the tab!
1 2 3 4 5
comments
print report bad tab
guest
You may want to rate the tab now too:
select rating
Wanna post a correction for this tab? Suggest correction