Oops, an error
Loading. Please wait.

The Lion King - I Just Cant Wait To Be King Bass Tab

5,579 views 15 this week
no commentswrite comment
1 2 3 4 5
please rate
add to favorites
launch autoscroll
font size
0
reset
guitar tuner
Autoscroll
slow
fast
+/-
esc
set tempo
stop
Help us to improve Ultimate-Guitar.com Take our survey!
×
Contributor
Difficulty
intermediate
INTRO
----------------------------------|
----------------------------------|
----------------------------------|
-2~---2~---2~----14/--------------|

VERSE 1

I'm gonna be a mighty king...
----------------------------------|
---------------------------44-----|
----------\6-4---------4/6--------|
--2-------------2-----------------|

Well i've never seen a king of beasts...
----------------------------------|
---------\6-4/--------------------|
-2--------------2-----------------|
-------------------2h4--222-------|

I'm gonna be the mane event...
----------------------------------|
---------------------------44-----|
----------/6-4---------4/6--------|
--2-------------2-----------------|

I'm brushing up on looking down...
----------------------------------|
---------/6-4\--------------------|
-22222----------2-----------------|
-------------------2h4--222-------|

Thus far, a rather...
--------------------/8-6----------|
-------/6-4-----------------------|
------------6-4-444---------------|
2-3-4-----------------------------|

CHORUS

Oh I just can't wait to be king...
----------------------------------|
---------------4~-----------------|
-2----4----4-6--------------------|
----4----4------------------------|

You've rather a long way to go...
----------------------------------|
-4------------4-------------------|
---4------4-6---------------------|
-----2~---------------------------|

VERSE 2

No one saying do this...
-----------------------------------|
-------------------4-6-6-----6-6-4-|
-2-2-----2-2---4/6-------6-6-------|
-----2-2-----2---------------------|

No one saying stop that...
----------------------------------|
3-3-------------------------------|
----6-6-4--4/6\4------------------|
------------------2222------------|

No one saying see here...
----------------------------------|
-------444------------------------|
4/6\4------6-4--------------------|
----------------------------------|

Free to run around all day...
----------------------------------|
-------------8/6----3-------------|
-2-1---2-4-------------6-4--------|
-----4----------------------------|

Free to do it all my way...
----------------------------------|
--------------------44-4----------|
-2-----4--------4/6------6\4------|
----4-----3322----------------22--|

----------------------------------|
--------44------------------------|
---4/6-----6-4--------------------|
-2--------------------------------|

VERSE 3

I think it's time that you and I...
----------------------------------|
----------------------------44----|
--------6/4-----------4/6---------|
--2----------2--------------------|

Kings don't need advice...
----------------------------------|
---------/6-4\---44---4-----------|
--2-----------------4---66-44-----|
----------------------------------|

If this is where the monarchy...
----------------------------------|
----------------------------44----|
--------6/4-----------4/6---------|
--2-----------2-------------------|

Out of service, out of Africa...
----------------------------------|
---------/6-4\--4-----------------|
--2----------------4--------------|
---------------------2------------|

This child is getting wild...
-----------------------/8-6-------|
-------66--4----------------------|
--------------6-4-----------------|
344-------------------------------|

CHORUS

Oh I just can't wait to be king...
----------------------------------|
---------------4~-----------------|
-2----4----4-6--------------------|
----4----4------------------------|


INSTRUMENTAL
----------12~---------1212---------|
-------12------12-14------14-12----|
-10~----------------------------10-|
-----------------------------------|

----------------------------------|
--------555-----------------------|
-5----5-----5---------------------|
----3---------333-----------------|

OTHER

Everybody look left...
----------------------------------|
--------------7-7-----7-----------|
-3-3---3-3--5-----7-7-------------|
----3-3---3-----------------------|

Everybody look right...
----------------------------------|
-7-5-4----------------------------|
-------7-5------------------------|
-----------5/7\5------------------|

Stand in spotlight! (Not yet!)
----------------------------------|
---------55-----------------------|
-----5/7--------------------------|
-33-------------------------------|

Let every creature go...
----------------7/9\7-------------|
----------------------7/9\7-------|
-3-2---3-5------------------------|
-----5----------------------------|

Let's hear it in the herd...
----------------------------------|
----------------7/9\7-------------|
-3-2---3-5-------------9-7-5------|
-----5----------------------------|

It's gonna be King Simba's...
----------------7/9\7-------------|
----------------------9\7\5-------|
-3-2---3-5------------------7-5---|
-----5----------------------------|

Oh, I just can't wait to be king!
----------------------------------|
-------------------------55-------|
-3----5---3-5-7------5/7----7-5---|
----5-----------33----------------|

Oh, I just can't wait to be king!
----------------------------------|
-------------------55-------------|
-3---5-55------5/7----7-5---------|
---5------333---------------------|

Oh I just can't wait...
----------------------------------|
----------------------------------|
-3---5~---------------------------|
---5------------------------------|

-7h9p7----------------------------|
--------7h9p7---------------------|
---------------5/7\5--------------|
----------------------3-----------|

To be king!
----------------------------------|
------------55--------------------|
--------5/7----7-5----------------|
-3-33-3------------33-3--3--------|

Suggest correction What's this?
You can suggest a correction to this tab. Community and Mods will review your correction and vote to approve or reject it.
comments
We did not receive enough feedback on this tab! Please rate:
print report bad tab
1 2 3 4 5
I want to post or [tab]
guest
You may want to rate the tab now too:
select rating
Please do not post tabs as comments. Select "correction" instead!