Oops, an error
Loading. Please wait.

The London Boys - London Nights bass

16 views 1 this week
no commentswrite comment
1 2 3 4 5
2 more votes to show rating
add to favorites
×
Save as Personal and add changes to this tab that will be seen only by you. Learn more ›
×
You can save this tab as Personal to edit and correct it or add notes. All changes will be seen only by you. Learn more »
launch autoscroll
font size
0
reset
guitar tuner
edit
Autoscroll
slow
fast
+/-
esc
set tempo
stop
London Nights
The London Boys second single release from their album The Twelve
Commandments of Dance. Reached number 2 in UK Charts in 1989.
Tab by bass50611. As original Album version and this is how
I would play it on stage. Enjoy and relive the Eighties

Intro: Vocals And Effects Start.

                                          (Play This Bit x2)
G|----------------------------------------------|
D|-7--7--7--7--7--7--7--7---------------------4-|
A|------------------------7--7--7--7--7--7--7---|
E|----------------------------------------------|

Verse 1:
G|----------------------------------------------|
D|-7--7--7--7--7--7--7--7---------------------4-|
A|------------------------7--7--7--7--7--7--7---|
E|----------------------------------------------|

G|-----------------------------------------------|
D|-7--7--7--7--7--7--7--7------------------------|
A|------------------------7--7--7--7--7--7--7--7-|
E|-----------------------------------------------|

Pre-Chorus 1:
G|-----------------------------------------------------------------------|
D|------------5--5--5--5---7--7--7--7--7--5--4---------------------------|
A|-5--5--5--5----------------------------------7--5--5--5--5--5--5--5--5-|
E|-----------------------------------------------------------------------|

G|------------------------|
D|------------------------|
A|-7--7--7--7--7--7--7--7-|
E|------------------------|

Chorus:
G|--------------------------------------------------------------------|
D|-7--7--7--7------5--5---7--7--7--7------5--5---7--7--7--7------5--5-|
A|------------5--5-------------------5--5-------------------5--5------|
E|--------------------------------------------------------------------|

G|----------------------------------------------------------------------|
D|-7--7--7--7------------------------------------7--7--7--7--7--7--7--7-|
A|-------------------10-8-7--7--7--7--7--7--7--7------------------------|
E|------------10--10----------------------------------------------------|

G|--------------------------------------------------|
D|--------------------------------------------------|
A|-5--5--5--5--5--5--5--5---8--8--8--8---7--7--7--7-|
E|--------------------------------------------------|

Verse 2:
G|----------------------------------------------|
D|-7--7--7--7--7--7--7--7---------------------4-|
A|------------------------7--7--7--7--7--7--7---|
E|----------------------------------------------|

G|-----------------------------------------------|
D|-7--7--7--7--7--7--7--7------------------------|
A|------------------------7--7--7--7--7--7--7--7-|
E|-----------------------------------------------|

Pre-Chorus 1:
G|-----------------------------------------------------------------------|
D|------------5--5--5--5---7--7--7--7--7--5--4---------------------------|
A|-5--5--5--5----------------------------------7--5--5--5--5--5--5--5--5-|
E|-----------------------------------------------------------------------|

G|------------------------|
D|------------------------|
A|-7--7--7--7--7--7--7--7-|
E|------------------------|

Chorus:
G|--------------------------------------------------------------------|
D|-7--7--7--7------5--5---7--7--7--7------5--5---7--7--7--7------5--5-|
A|------------5--5-------------------5--5-------------------5--5------|
E|--------------------------------------------------------------------|

G|----------------------------------------------------------------------|
D|-7--7--7--7------------------------------------7--7--7--7--7--7--7--7-|
A|-------------------10-8-7--7--7--7--7--7--7--7------------------------|
E|------------10--10----------------------------------------------------|

G|--------------------------------------------------|
D|--------------------------------------------------|
A|-5--5--5--5--5--5--5--5---8--8--8--8---7--7--7--7-|
E|--------------------------------------------------|

Interlude:
G|----------------------------------------------|
D|-7--7--7--7--7--7--7--7---------------------4-|
A|------------------------7--7--7--7--7--7--7---|
E|----------------------------------------------|

G|-----------------------------------------------|
D|-7--7--7--7--7--7--7--7------------------------|
A|------------------------7--7--7--7--7--7--7--7-|
E|-----------------------------------------------|

Pre-Chorus 2:
G|-------------------------------------------------|
D|-------------------------------------------------|
A|-5--5--5--5--5--5--5--5---7--7--7--7--7--7--7--7-|
E|-------------------------------------------------|

Chorus:
G|--------------------------------------------------------------------|
D|-7--7--7--7------5--5---7--7--7--7------5--5---7--7--7--7------5--5-|
A|------------5--5-------------------5--5-------------------5--5------|
E|--------------------------------------------------------------------|

G|----------------------------------------------------------------------|
D|-7--7--7--7------------------------------------7--7--7--7--7--7--7--7-|
A|-------------------10-8-7--7--7--7--7--7--7--7------------------------|
E|------------10--10----------------------------------------------------|

G|--------------------------------------------------|
D|--------------------------------------------------|
A|-5--5--5--5--5--5--5--5---8--8--8--8---7--7--7--7-|
E|--------------------------------------------------|

Outro:                                               (Repeat To Fade/End
G|--------------------------------------------------------------------|
D|-7--7--7--7------5--5---7--7--7--7------5--5---7--7--7--7------5--5-|
A|------------5--5-------------------5--5-------------------5--5------|
E|--------------------------------------------------------------------|


            
            
Suggest correction
Creating personal tab
Creating personal tab
You can edit any tab online and save it as your Personal.

You can edit, replace or remove any tab part or add personal notes – all changes will be seen only by you.

Personal tabs can be accessed anytime from any device, even offline.
Learn more »
Give kudos to tab author, rate the tab!
1 2 3 4 5
comments
print report bad tab
guest
You may want to rate the tab now too:
select rating
Wanna post a correction for this tab? Suggest correction