Oops, an error
Loading. Please wait.

The London Boys - Requiem bass

4 views 1 this week
no commentswrite comment
1 2 3 4 5
2 more votes to show rating
add to favorites
×
Save as Personal and add changes to this tab that will be seen only by you. Learn more ›
×
You can save this tab as Personal to edit and correct it or add notes. All changes will be seen only by you. Learn more »
launch autoscroll
font size
0
reset
guitar tuner
edit
Autoscroll
slow
fast
+/-
esc
set tempo
stop
Requiem
This is the first single release by German based Boy Band The London Boys
Taken from their top selling album The Twelve Commandments of Dance, this
Single reached number 4 in UK Charts in 1988. Tab by bass50611. Welcome
To my tab as I would play on stage. Note the tuning down to lower D on the E
 string. Great Eighties Disco Sound. Note: This version from YouTube
(Good Quality Audio) Sadly, this duo got killed by Drunken driver in 1996

Intro: ORGAN START

G|------------------------------------------------------------------------|
D|------------------------------------------------------------------------|
A|-0--0--0--0--0--0--0--0---0--0--0--0--0--0--3--3------------------------|
D|-------------------------------------------------2--2--2--2--2--2--0--0-|

G|----------------------------------------------------------------------|
D|----------------------------------------------------------------------|
A|-0--0--0--0--0--0--3--3------------------------0--0--0--0--0--0--0--0-|
D|------------------------2--2--2--2--2--2--0--0------------------------|

Verse 1:
G|----------------------------------------------------------------------|
D|----------------------------------------------------------------------|
A|-0--0--0--0--0--0--3--3------------------------0--0--0--0--0--0--3--3-|
D|------------------------2--2--2--2--2--2--0--0------------------------|

G|----------------------------------------------------------------------|
D|----------------------------------------------------------------------|
A|------------------------0--0--0--0--0--0--0--0------------------------|
D|-2--2--2--2--2--2--0--0------------------------5--5--5--5--5--5--5--5-|

Chorus:
G|------------------------------------------------------------------------|
D|------------------------0--0--0--2--3--4--5--4--3--3--3--3---5--5--5--5-|
A|-3--3--3--3--3--3--3--3-------------------------------------------------|
D|------------------------------------------------------------------------|

G|---------------------------------------------------------------------|
D|----------------------------------------------0--0--0--2--3--4--5--4-|
A|-3--3--3--3------------3--3--3--3--3--3--3--3------------------------|
D|------------5--5--5--5-----------------------------------------------|

G|------------------------------------------------------------------------|
D|-3--3--3--3--3--3--3--3---2--2--2--2---3--3--3--3-----------------------|
A|--------------------------------------------------5--5--5--5------------|
D|-------------------------------------------------------------5--5--5--5-|

G|------------------------|
D|------------------------|
A|-3--3--3--3--3--3--3--3-|
D|------------------------|

Interlude 1:
G|----------------------------------------------------------------------|
D|----------------------------------------------------------------------|
A|-0--0--0--0--0--0--3--3------------------------0--0--0--0--0--0--3--3-|
D|------------------------2--2--2--2--2--2--0--0------------------------|

G|-----------------------------------------------|
D|-----------------------------------------------|
A|------------------------0--0--0--0--0--0--0--0-|
D|-2--2--2--2--2--2--0--0------------------------|

Verse 2:
G|----------------------------------------------------------------------|
D|----------------------------------------------------------------------|
A|-0--0--0--0--0--0--3--3------------------------0--0--0--0--0--0--3--3-|
D|------------------------2--2--2--2--2--2--0--0------------------------|

G|----------------------------------------------------------------------|
D|----------------------------------------------------------------------|
A|------------------------0--0--0--0--0--0--0--0------------------------|
D|-2--2--2--2--2--2--0--0------------------------5--5--5--5--5--5--5--5-|

Chorus:
G|------------------------------------------------------------------------|
D|------------------------0--0--0--2--3--4--5--4--3--3--3--3---5--5--5--5-|
A|-3--3--3--3--3--3--3--3-------------------------------------------------|
D|------------------------------------------------------------------------|

G|---------------------------------------------------------------------|
D|----------------------------------------------0--0--0--2--3--4--5--4-|
A|-3--3--3--3------------3--3--3--3--3--3--3--3------------------------|
D|------------5--5--5--5-----------------------------------------------|

G|------------------------------------------------------------------------|
D|-3--3--3--3--3--3--3--3---2--2--2--2---3--3--3--3-----------------------|
A|--------------------------------------------------5--5--5--5------------|
D|-------------------------------------------------------------5--5--5--5-|

G|------------------------|
D|------------------------|
A|-3--3--3--3--3--3--3--3-|
D|------------------------|

Interlude 2:
G|------------------------------------------------------------|
D|------------------------------------------------------------|
A|-0--0--0--0--0--0--3--3-------------------------------------|
D|------------------------2--2--2--2--2--2--2--2---3--3--3--3-|

G|----------------------------------|
D|----------------------------------|
A|----------------------------------|
D|-0--0--0--0---5--5--5--5--5--5--5-|

Chorus:
G|------------------------------------------------------------------------|
D|------------------------0--0--0--2--3--4--5--4--3--3--3--3---5--5--5--5-|
A|-3--3--3--3--3--3--3--3-------------------------------------------------|
D|------------------------------------------------------------------------|

G|---------------------------------------------------------------------|
D|----------------------------------------------0--0--0--2--3--4--5--4-|
A|-3--3--3--3------------3--3--3--3--3--3--3--3------------------------|
D|------------5--5--5--5-----------------------------------------------|

G|------------------------------------------------------------------------|
D|-3--3--3--3--3--3--3--3---2--2--2--2---3--3--3--3-----------------------|
A|--------------------------------------------------5--5--5--5------------|
D|-------------------------------------------------------------5--5--5--5-|

G|-----------------------|
D|------------5--5--5--5-|
A|-3--3--3--3------------|
D|-----------------------|

Repeat Outro Chorus To Fade/End:

Suggest correction
Creating personal tab
Creating personal tab
You can edit any tab online and save it as your Personal.

You can edit, replace or remove any tab part or add personal notes – all changes will be seen only by you.

Personal tabs can be accessed anytime from any device, even offline.
Learn more »
Give kudos to tab author, rate the tab!
1 2 3 4 5
comments
print report bad tab
guest
You may want to rate the tab now too:
select rating
Wanna post a correction for this tab? Suggest correction