Oops, an error
Loading. Please wait.

The Mailmans Father Is Synagogue - Livid Lollipops tab

87 views 1 this week
no commentswrite comment
1 2 3 4 5
3 more votes to show rating
add to favorites
×
Save as Personal and add changes to this tab that will be seen only by you. Learn more ›
×
You can save this tab as Personal to edit and correct it or add notes. All changes will be seen only by you. Learn more »
launch autoscroll
font size
0
reset
how to read this tab
guitar tuner
edit
Autoscroll
slow
fast
+/-
esc
set tempo
stop
Author
Difficulty
LIVID LOLLIPOPS
by The Mailman's Father is Synagogue


Gtr I (D A D G B E) - 'Distorted Electric'
Gtr II (D A D G B E) - 'Distorted Electric'
Gtr III (E A D G B E) - 'Acoustic Guitar'

  Q=100
 3/4                       6/4
  Gtrs I, II
  S S S S S S S S S S S S   T T T  T E S S S S S S S S S S S H    +S
|-------------------------|--------------------------1-----------------|
|-1-----------1-----------|------------------------2---1---------------|
|---3-3-3-2-0---0-2-0-----|----------8-----------4-------3-3-3----(3)--|
|---------------------3---|------------------0-0-----------------------|
|-----------------------5-|-7-8-9-10-----------------------------------|
|-------------------------|------------2-2-2---------------------------|


 3/4                          2/4
  Gtr I
  S S S S S S S S T T T  T E   S S S S S S S S   T T S S S S S S S
|----------------------------|-----------------|--------------------|
|-----1----------------------|-----------------|--------------------|
|-2-0---0-2-0--------------8-|---------------4-|--------------------|
|-------------3--------------|-------0-0-4-5---|-2-2-2-2-0-2-4-5-7--|
|---------------5-7-8-9-10---|-----------------|-2-2-2-2------------|
|----------------------------|-2-2-2-----------|-2-2-2-2------------|
|
| Gtr II
| S S S S S S S S T T T  T E   S S S S S S S S   T T S S S S S S S
|----------------------------|-----------------|--------------------|
|-----1----------------------|-----------------|---------------5-3--|
|-2-0---0-2-0--------------8-|---------------4-|---------0-2-4------|
|-------------3--------------|-------0-0-4-5---|-2-2-2-2------------|
|---------------5-7-8-9-10---|-----------------|-2-2-2-2------------|
|----------------------------|-2-2-2-----------|-2-2-2-2------------|


  S S S   S S S S S   S S S S S S S S   T S T S S S S S S   T T E S S  S S S
|-------------3-----|-2---------------|-------------------|------------------|
|-------------------|-------5---------|-------------------|-------5-6--8-6-5-|
|---------4-4---3-3-|---2-2-------6---|-------------------|------------------|
|-2-2-2-------------|---------7-6---8-|-2-2-----0---2-0-4-|-2-2-2------------|
|-2-2-2-------------|-----------------|-2-2-------2-------|-2-2-2------------|
|-2-2-2-------------|-----------------|-2-2---------------|-2-2-2------------|
|
| S S T T S S S S S   S S S S S S S S   T S T S S S S S S   T T E S S  S S S
|-------------3-----|-2---------------|-------------------|-------7-8-10-8-7-|
|-------------------|-------5---------|-------------------|------------------|
|---------4-4---3-3-|---2-2-------6---|---------------5-4-|------------------|
|-2-2-2-------------|---------7-6---8-|-2-2-----4-5-7-----|-2-2-2------------|
|-2-2-2-------------|-----------------|-2-2---------------|-2-2-2------------|
|-2-2-2-------------|-----------------|-2-2---------------|-2-2-2------------|


  Gtrs I, II
  S S S S S S S S   S S S S S S S S
|-----------3-----|-2---------------|
|-----------------|-------5---------|
|-------4-4---3-3-|---2-2-------6---|
|-2-2-2-----------|---------7-6---8-|
|-2-2-2-----------|-----------------|
|-2-2-2-----------|-----------------|


 5/4
   S  S  S  S  S  S  S  S  S  S S S S S S S S S S S
|---------------------------------------------------|
|-------------------------------------------4-4-4-5-|
|--8--8--8--8--8--8--8--8--8--8---------------------|
|-------------------------------5-5-5-5-5-5-6-6-6---|
|-11-11-11-11-11-11-11-11-11-11-3-3-3-3-3-3-4-4-4---|
|-11-11-11-11-11-11-11-11-11-11-3-3-3-3-3-3---------|


  S S  T T T T +T  S S S T +T  S S S T +T  S S S  T  +T   S  S S  T
|-5-4-11-9-7--------------------------------------------------------|
|----------------------------------------------------------------10-|
|-------------------------------------------------8--(8)--8--8-9----|
|------------5-(5)-5-5----------------------------------------------|
|------------3-(3)-3-3-----------------------6-7-11-(11)-11-11------|
|------------3-(3)-3-3-2-4-(4)-2-4-2-4-(4)-7-----11-(11)-11-11------|


   +T  S  T T T S S S T T T T T T T T T T T T T T T T T T T T T T T T T T T T
|--------11-9-7----------------------------------------------------------------|
|-(10)-9--------------1-4-----1-4-----1-4-----1-4-----1-4----------------------|
|---------------------------3-------3-------3-------3---------4-5-----4-5------|
|---------------5-5-5-----5-------5-------5-------5-------4-5-----4-5-----4-5--|
|---------------3-3-3----------------------------------------------------------|
|---------------3-3-3----------------------------------------------------------|


  T T T T T T T T T T T T T T T T T T T T T T T T T T T T T T T T T T T T T T T T
|----------------------------------------------------------------------------------|
|----------------------------------------------------------------------------------|
|-4-5-----4-5-------------------------------------------------------------2-2-2-3--|
|-----4-5---------7-8-----7-8-----7-8-----------------------------2-2-2-3----------|
|-------------7-8-----7-8-----7-8-------------------------2-2-2-3------------------|
|-------------------------------------2-2-2-2-4-4-4-4-4-4--------------------------|


 4/4
  Gtr I
  S S S S S T T E E S S S S S. T   S S S S E S S S S S S S S S S
|-2-2-2-2-2-2-2-----------3-5----|---4---------3-5-4-5-4-5-4---3-|
|-0-0-0-0-0-0-0-----------0------|---0---2---5---------------5---|
|---------------------------5----|-------------------------------|
|-2-2-2-2-2-2-2-----------3-4----|---2---4-----------------------|
|-------------------------2-3----|---2---2-----------------------|
|-------------------2---2------2-|-------2-----------------------|
|
| Gtr II
| S S S S S T T E E S S S S S. T   S S S S E S S S S S S S S S S
|-2-2-2-2-2-2-2-----------3-5----|---4-------1-4-6-5-6-5-6-5---4-|
|-0-0-0-0-0-0-0-----------0------|---0---2-------------------6---|
|---------------------------5----|-------------------------------|
|-2-2-2-2-2-2-2-----------3-4----|---2---4-----------------------|
|-------------------------2-3----|---2---2-----------------------|
|-------------------2---2------2-|-------2-----------------------|


  S S S S S S S S S S  S  S  S S S S   S S S S E S S S S S S S S S S
|-2-2-2-2-2-2------------12----------|-------------3-5-4-5-4-5-4---3-|
|-0-0-0-0-0-0---------15----15-------|-2-2-2-2---5---------------5---|
|------------------------------4-4-4-|-------------------------------|
|-2-2-2-2-2-2---1---1-14-14-14-3-3-3-|-4-4-4-4-----------------------|
|-2-2-2-2-2-2---2---2-13-13-13-2-2-2-|-2-2-2-2-----------------------|
|---------------2---2-14-14-14-------|-------------------------------|
|
| S S S S S S S S S S  S  S  S S S S   S S S S E S S S S S S S S S S
|-2-2-2-2-2-2------------------------|-----------1-4-6-5-6-5-6-5---4-|
|-0-0-0-0-0-0----------5--5--5-------|-2-2-2-2-------------------6---|
|----------------------3--3--3-4-4-4-|-------------------------------|
|-2-2-2-2-2-2---1---1--2--2--2-3-3-3-|-4-4-4-4-----------------------|
|-2-2-2-2-2-2---2---2----------2-2-2-|-2-2-2-2-----------------------|
|---------------2---2----------------|-------------------------------|


  S S S S S S S S S S S S S S S S   E E Q     H
|---------------------------------|-----------------------|
|-0-0-----0-------0---0---0---0-2-|-2---------------------|
|-1-----1-1-------1---1-1-1-4-1---|-4---------------------|
|-3-------3-3-----3-3-3---3---3---|-6---------------------|
|-2-------2-----2-2---2---2-2-2---|-2---------------------|
|---------------------------------|-----------------------|
|
| Gtr III
| W                                 Q   S E S E E S S S S
|---------------------------------|-----------------------|
|---------------------------------|-----------------------|
|---------------------------------|---------------2-2-2-2-|
|---------------------------------|---------------0-0-0-0-|
|---------------------------------|-------2-3-5-3---------|
|---------------------------------|-----2---------3-3-3-3-|


  W
|-----------------------------------|
|-----------------------------------|
|-----------------------------------|
|-----------------------------------|
|-----------------------------------|
|-----------------------------------|
|
| S S S S E  S S  S S  E  S S  S S
|-----------10-8----8----10-8----8--|
|---------3------10-----------10----|
|-2-2-2-2-0------------7------------|
|-0-0-0-0---------------------------|
|---------3-----------10------------|
|-3-3-3-3--------------8------------|


  Gtr III
   S  S  S  S  S  S  S  S  S  S S S S S S S
|-------------------------------------------|
|-------------------------------------------|
|--7--7--7--7--7--7--7--7--7--7-5-5-5-5-5-5-|
|--0--0--0--0--0--0--0--0--0--0-5-5-5-5-5-5-|
|-10-10-10-10-10-10-10-10-10-10-7-7-7-7-7-7-|
|--7--7--7--7--7--7--7--7--7--7-8-8-8-8-8-8-|


 4/4
  S S S S S T T S S S S S S S S T S.
|-5-5-5-5-3-1-3-5---5-5-5-5-3-1-3-8--|
|-5-5-5---------8---5-5-5------------|
|-5-5-5-------------5-5-5------------|
|-7-7-7-------------7-7-7------------|
|-0-0-0-------------0-0-0------------|
|------------------------------------|


                                        3/4
   S  S  S  S  S S S S S S S S S S S S   S S S S S S S S S S S S
|----12----10----8---8---5---3---------|-------------------------|
|-10-----------------------------6---5-|---3---1-----------3---1-|
|-------12----10---9---7---5---4-------|-----------4-------------|
|----------------------------------7---|-5---3---2-----7-5---3---|
|--------------------------------------|-------------5-----------|
|--------------------------------------|-------------------------|


 4/4
  S S E S E S E S S +S  S E   E S S S S S S S S S S S S E
|-------------------------1-|-----------------------------|
|-3-3-4-3-4-3-4-3-4-(4)-3-3-|-4---------------------------|
|-0-0-0-0-0-0-0-0-0-(0)-0-0-|-7-3-3-3-3-3-3-3-3-3-3-3-3-3-|
|---------------------------|-5-5-5-5-5-5-5-5-5-5-5-5-5-5-|
|-3-3-3-3-3-3-3-3-3-(3)-3-3-|-3-5-5-5-5-5-5-5-5-5-5-5-5-5-|
|---------------------------|---3-3-3-3-3-3-3-3-3-3-3-3-3-|


                             5/4
  S S E S E S E S S +S  S E   E S S S S S S S S S S S S S S S E.
|-------------------------1-|---3-3-3-3-3-3-3-3-1-1-1-1-----------|
|-3-3-4-3-4-3-4-3-4-(4)-3-3-|-4-------------------------4-4-3-3---|
|-0-0-0-0-0-0-0-0-0-(0)-0-0-|-7-----------------------------------|
|---------------------------|-5-----------------------------------|
|-3-3-3-3-3-3-3-3-3-(3)-3-3-|-3-----------------------------------|
|---------------------------|-------------------------------------|


 4/4
  Gtr I
  S S   S   S   S   S   S   S   S   S   S   S   S   S   S   S
|---------------------------------------------------------------|
|-------3-------------------------------------------------------|
|-------------------5-------------------------------------------|
|---5-----------4-----------4-----------7-----------5-------5---|
|-3---------3-----------3-----------5-----------4-------4-------|
|-------------------------------5-----------5-------------------|
|
| Gtr II
| S T T T T T T T T T T T T T T T T T T T T T T T T T T T T T T
|---------------------------------------------------------------|
|---------------------------------------------------------------|
|---------------------------------------------------------------|
|-5-4-4-4---4-4-4---4-4-4---4-4-5---5-5-5---5-5-5---5-5-5---5-5-|
|-3-3-3-3---3-3-3---3-3-3---3-3-4---4-4-4---4-4-4---4-4-4---4-4-|
|-------------------------------5---5-5-5---5-5-5---5-5-5---5-5-|
|
| Gtr III
| S S   S   S   S   S   S   S   S   S   S   S   S   S   S   S
|---------------------------------------------------------------|
|-------3-------------------------------------------------------|
|-------------------5-------------------------------------------|
|---5-----------4-----------4-----------7-----------5-------5---|
|-3---------3-----------3-----------5-----------4-------4-------|
|-------------------------------3-----------3-------------------|


  S S    S    S    S    S    S    S    S    S    S    S    S    S    S    S
|---3---10---------------------------------------------------------------14----|
|----------------------13--------13-------------10------------------14---------|
|-5---------------11--------11---------------------------------12--------------|
|------------10----------------------------12-------------11-------------------|
|-------------------------------------10-------------10------------------------|
|------------------------------------------------------------------------------|
|
| S T T  T T  T T  T T  T T  T T  T T  T T  T T  T T  T T  T T  T T  T T  T T
|------------------------------------------------------------------------------|
|------------------------------------------------------------------------------|
|------------------------------------------------------------------------------|
|-5-4-4--4----4-4--4----4-4--4----4-4--5----5-5--5----5-5--5----5-5--5----5-5--|
|-3-3-3--3----3-3--3----3-3--3----3-3--4----4-4--4----4-4--4----4-4--4----4-4--|
|--------------------------------------5----5-5--5----5-5--5----5-5--5----5-5--|
|
| S S    S    S    S    S    S    S    S    S    S    S    S    S    S    S
|------------------------------------------------------------------------------|
|--------3----------------------------------------------------------------7----|
|-----------------------5---------5----------------------------------6---------|
|---5--------------4---------4-------------------7--------------5--------------|
|-3-----------3-----------------------------5--------------4-------------------|
|--------------------------------------3--------------3------------------------|


   S  S  S  S S  S  S S S S S S S S S S   S S S S S S S S S S S S S S S S
|---------------------------------------|---------------------------------|
|---------------------------------------|-----3-------------------------7-|
|---------------------------------------|-----------5---5-------------6---|
|-------12------10----------7-----5---5-|---5-----4---4-------7-----5-----|
|----10-------9-------9---5-----4---4---|-3-----3-----------5-----4-------|
|-10-------10------10---5-----5---------|-----------------5-----5---------|
|
|  S  S  S  S S  S  S S S S S S S S S S   S S S S S S S S S S S S S S S S
|---------------------------------------|---------------------------------|
|--3--3--3--3---------------------------|-3-3-3-3-------------------------|
|--0--0--0--0-5--5--5-5-2-2-2-2---------|-0-0-0-0-5-5-5-5-2-2-2-2---------|
|-------------4--4--4-4-0-0-0-0-5-5-5-5-|---------4-4-4-4-0-0-0-0-5-5-5-5-|
|--3--3--3--3-3--3--3-3---------4-4-4-4-|-3-3-3-3-3-3-3-3---------4-4-4-4-|
|-----------------------5-5-5-5-5-5-5-5-|-----------------5-5-5-5-5-5-5-5-|
|
|  S  S  S  S S  S  S S S S S S S S S S   S S S S S S S S S S S S S S S S
|---------------------------------------|---------------------------------|
|---------------------------------------|-----3-------------------------7-|
|---------------------------------------|-----------5---5-------------6---|
|-------12------10----------7-----5---5-|---5-----4---4-------7-----5-----|
|----10-------9-------9---5-----4---4---|-3-----3-----------5-----4-------|
|--8--------8-------8---3-----3---------|-----------------3-----3---------|


  Gtr II
  W          W          W          W
|-3--------|-3--------|-0--------|------|
|-3--------|-4--------|-2--------|------|
|-3--------|-5--------|-3--------|-2----|
|-5--------|-5--------|-4--------|-3----|
|-5--------|-3--------|-4--------|-3----|
|-5--------|----------|-4--------|-3----|


  W          W          W          W
|-3--------|-3--------|-0--------|------|
|-3--------|-4--------|-2--------|------|
|-3--------|-5--------|-3--------|-2----|
|-5--------|-5--------|-4--------|-3----|
|-5--------|-3--------|-4--------|-3----|
|-5--------|----------|-4--------|-3----|


  T T T T T T  T  T  T  T  T  T  T  T  T  T  T  T  T  T  T  T  T  T  T  T  T  T  T  T  T T
|---5-7-------14-13-------------------------------------14----16-------------12-10-------5-|
|-2-------8-9----------------------------11-------15-------12----------------------------4-|
|-------------------------------------13-------13----14----------------11-10---------------|
|-------9-----------15----------14----------12-------------------------------------10----6-|
|----------------------13-12-13----------------------------------13-------------------12-0-|
|----------------------------------15-------------------------------13---------------------|


  Gtr I
   W
|-10----------------------------------------------|
|-10----------------------------------------------|
|-------------------------------------------------|
|-------------------------------------------------|
|-------------------------------------------------|
|-------------------------------------------------|
|
| Gtr II
|  S  S  S  S  S  S  S  S  S  S  S  S  S  S  S  S
|-17-17-17-17-17-17-17-17-15-15-15-15-15-15-15-15-|
|-15-15-15-15-15-15-15-15-15-15-15-15-15-15-15-15-|
|-------------------------------------------------|
|-------------------------------------------------|
|-------------------------------------------------|
|-------------------------------------------------|


   W
|-12----------------------------------------------|
|-------------------------------------------------|
|-11----------------------------------------------|
|-------------------------------------------------|
|-------------------------------------------------|
|-------------------------------------------------|
|
|  S  S  S  S  S  S  S  S  S  S  S  S  S  S  S  S
|-14-14-14-14-14-14-14-14-12-12-12-12-12-12-12-12-|
|-15-15-15-15-15-15-15-15-14-14-14-14-14-14-14-14-|
|-------------------------------------------------|
|-------------------------------------------------|
|-------------------------------------------------|
|-------------------------------------------------|


   E.        S  +E      E     +H
|------------------------------------------------------|
|-14--------17-(17)------------------------------------|
|----------------------23----(23)----------------------|
|-12--------14-(14)------------------------------------|
|------------------------------------------------------|
|----------------------24----(24)----------------------|
|
|  S   S  S  S   S   S  S  S   S   S  S  S  S  S  S  S
|-10--10-10-10--10--10-10-10---9---9--9--9--9--9--9--9-|
|-12--12-12-12--12--12-12-12--10--10-10-10-10-10-10-10-|
|------------------------------------------------------|
|------------------------------------------------------|
|------------------------------------------------------|
|------------------------------------------------------|


   E.      S  +Q           Q           Q
|-------------------------------------------------|
|-------------------------------------------------|
|-------------------------------------------------|
|-------------------------17----------16----------|
|-21------19-(19)---------------------------------|
|-------------------------------------------------|
|
|  S  S S  S   S   S  S S  S  S  S  S  S  S  S  S
|--7--7-7--7--10--12-10-7--9--9--9--9--9--9--9--9-|
|--8--8-8--8---8---8--8-8-10-10-10-10-10-10-10-10-|
|-------------------------------------------------|
|-------------------------------------------------|
|-------------------------------------------------|
|-------------------------------------------------|


  S S E E S T T S S E S  S  S  S   S S E    E  S T T  S  S E S  S  S  S
|-----------------------10-10-10-|-----------------------------10-10-10-|
|------------------------9--9--9-|------------------------------9--9--9-|
|-----------------------12-12-12-|-----------------------------12-12-12-|
|-0---------0-0-0-0--------------|-0-------------0-0--0--0--------------|
|-0---------0-0-0-0--------------|-0-------------0-0--0--0--------------|
|-0---------0-0-0-0--------------|-0-------------0-0--0--0--------------|
|
| W                                E   S S +E  E     +H
|-1------------------------------|-5-----5-(5)--------------------------|
|-3------------------------------|-6------------------------------------|
|-2------------------------------|-7---7--------------------------------|
|-0------------------------------|-0------------------------------------|
|-0------------------------------|-0-----------5-----(5)----------------|
|-0------------------------------|-----7--------------------------------|


   S  S  S  S  S  S  S  S  S  S  S  S  S  S  S  S
|-------------------------------------------------|
|-------------------------------------------------|
|-------------------------------------------------|
|-------------------------------------------------|
|-12-12-12-12-12-12-12-12-12-12-12-12-12-12-12-12-|
|-12-12-12-12-12-12-12-12-12-12-12-12-12-12-12-12-|
|
|  S  S  S  S  S  S  S  S  S  S  S  S  S  S  S  S
|-------------------------------------------------|
|-------------------------------------------------|
|-------------------------------------------------|
|--5--5--5--5--5--5--5--5--7--7--7--7--7--7--7--7-|
|-------------------------------------------------|
|-------------------------------------------------|


  S S S S S S S S S S S S S S S S
|---------------------------------|
|-3-3-3-3-3-3-3-3-3-3-3-3-3-3-3-3-|
|-4-4-4-4-4-4-4-4-4-4-4-4-4-4-4-4-|
|-4-4-4-4-4-4-4-4-4-4-4-4-4-4-4-4-|
|-2-2-2-2-2-2-2-2-2-2-2-2-2-2-2-2-|
|---------------------------------|
|
| S S S S S S S S S S S S S S S S
|---------------------------------|
|---------------------------------|
|-7-7-7-7-7-7-7-7-----------------|
|-----------------9-9-9-9-7-7-7-5-|
|---------------------------------|
|---------------------------------|


  S S S S S S S S S S S S  S  S  S  S
|-------------------------------------|
|-------------------------------------|
|-2-2-2-2-2-2-2-2-2-2-2-2--2--2--2--2-|
|-0-0-0-0-0-0-0-0-0-0-0-0--0--0--0--0-|
|-------------------------------------|
|-5-5-5-5-5-5-5-5-5-5-5-5--5--5--5--5-|
|
| S S S S S S S S S S S S  S  S  S  S
|-------------------------------------|
|-------------------------------------|
|-------------------------------------|
|-7-7-7-7-7-7-7-7-9-9-9-9-11-11-12-12-|
|-------------------------------------|
|-------------------------------------|


   S  S  S  S  E     T  S  T  +T  S S S T +T  S   T S   S
|--5--5--5--5-----------5--5--(5)-5---5-5-(5)-5---------5---|
|--6--6--6--6-----------6--6--(6)-6---6-6-(6)-6---------6---|
|-----------------------------------------------------------|
|--0--0--0--0-----------0--0--(0)-0---0-0-(0)-0---------0---|
|--0--0--0--0-----------0--0--(0)-0---0-0-(0)-0---------0---|
|--0--0--0--0-----------0--0--(0)-0---0-0-(0)-0---------0---|
|
|  S  S  S  S  S T S    S  T  +T  S S S T +T  T T T T T T T
|-----------------------------------------------------------|
|---------------------------------8---8-8-(8)-8-8-8-8-8-6-6-|
|-10-10-10-10-10-------10-10-(10)---------------------------|
|-----------------------------------------------------------|
|-----------------------------------------------------------|
|-----------------------------------------------------------|


  S S S S E T S T +T  S S S T +T  S T S S
|-6-6-6-6-----6-6-(6)-6---6-6-(6)-6-----6---|
|-6-6-6-6-----6-6-(6)-6---6-6-(6)-6-----6---|
|-------------------------------------------|
|-0-0-0-0-----0-0-(0)-0---0-0-(0)-0-----0---|
|-0-0-0-0-----0-0-(0)-0---0-0-(0)-0-----0---|
|-0-0-0-0-----0-0-(0)-0---0-0-(0)-0-----0---|
|
| W
|-------------------------------------------|
|-------------------------------------------|
|-------------------------------------------|
|-------------------------------------------|
|-------------------------------------------|
|-------------------------------------------|


  S S S S E T S T +T  S E T +T  S T S S
|-3-3-3-3-------3-(3)-3---3-(3)-3-------|
|-3-3-3-3-------3-(3)-3---3-(3)-3-------|
|-3-3-3-3-------3-(3)-3---3-(3)-3---3-3-|
|-3-3-3-3-------3-(3)-3---3-(3)-3---3-3-|
|-3-3-3-3-------3-(3)-3---3-(3)-3---5-5-|
|-3-3-3-3-------3-(3)-3---3-(3)-3-------|


  S S S S E T S T +T  S S S T +T  S T S S
|-5-5-5-5-----5-5-(5)-5---5-5-(5)-5-----5--|
|-6-6-6-6-----6-6-(6)-6---6-6-(6)-6-----6--|
|------------------------------------------|
|-0-0-0-0-----0-0-(0)-0---0-0-(0)-0-----0--|
|-0-0-0-0-----0-0-(0)-0---0-0-(0)-0-----0--|
|-0-0-0-0-----0-0-(0)-0---0-0-(0)-0-----0--|


  S S S S E T S T +T  S S S T +T  S T S S
|-6-6-6-6-----6-6-(6)-6---6-6-(6)-6-----6-|
|-6-6-6-6-----6-6-(6)-6---6-6-(6)-6-----6-|
|-----------------------------------------|
|-0-0-0-0-----0-0-(0)-0---0-0-(0)-0-----0-|
|-0-0-0-0-----0-0-(0)-0---0-0-(0)-0-----0-|
|-0-0-0-0-----0-0-(0)-0---0-0-(0)-0-----0-|


  S S S S E T S T +T  S E T +T  S T S S
|-3-3-3-3-------3-(3)-3---3-(3)-3--------|
|-3-3-3-3-------3-(3)-3---3-(3)-3--------|
|-3-3-3-3-------3-(3)-3---3-(3)-3---3-3--|
|-3-3-3-3-------3-(3)-3---3-(3)-3---3-3--|
|-3-3-3-3-------3-(3)-3---3-(3)-3---5-5--|
|-3-3-3-3-------3-(3)-3---3-(3)-3--------|


  T T T T T T T T T T T T T T T T T T T T T T T  T  T  T  T  T  T  T  T  T
|------------------------------------------------6--6--6--6--6--6--6--6--6-*|
|-----------------------------------------------10-10-10-10-10-10-10-10-10-*|
|--------------------------------------------------------------------------*|
|-0-0-0-0-0-0-0-0-0-0-0-0-0-0-0-0-0-0-0-0-0-0-0----------------------------*|
|-0-0-0-0-0-0-0-0-0-0-0-0-0-0-0-0-0-0-0-0-0-0-0----------------------------*|
|-0-0-0-0-0-0-0-0-0-0-0-0-0-0-0-0-0-0-0-0-0-0-0----------------------------*|


Duration Legend
---------------
W - whole; H - half; Q - quarter; E - 8th; S - 16th; T - 32nd; X - 64th; a - acciaccatura
+ - note tied to previous; . - note dotted; .. - note double dotted
Uncapitalized letters represent notes that are staccato (1/2 duration)
Irregular groupings are notated above the duration line
Duration letters will always appear directly above the note/fret number it represents the
duration for.  Duration letters with no fret number below them represent rests.  Multi-
bar rests are notated in the form Wxn, where n is the number of bars to rest for.  Low
melody durations appear below the staff

Tablature Legend
----------------
 h   - hammer-on
 p   - pull-off
 b   - bend
 pb  - pre-bend
 r   - bend release (if no number after the r, then release immediately)
 /\  - slide into or out of (from/to "nowhere")
 s   - legato slide
 S   - shift slide
  - natural harmonic
[n]  - artificial harmonic
n(n) - tapped harmonic
 ~   - vibrato
 tr  - trill
 T   - tap
 TP  - trem. picking
 PM  - palm muting
\n/  - tremolo bar dip; n = amount to dip
 \n  - tremolo bar down
 n/  - tremolo bar up
/n\  - tremolo bar inverted dip
 =   - hold bend; also acts as connecting device for hammers/pulls
 <>  - volume swell (louder/softer)
 x   - on rhythm slash represents muted slash
 o   - on rhythm slash represents single note slash

Misc Legend
-----------
 |  - bar
||  - double bar
||o - repeat start
o|| - repeat end
*|  - double bar (ending)
 :  - bar (freetime)
 $  - Segno
 &  - Coda
Tempo markers -  = BPM(8/16=s8/s16), where s8 = swing 8ths, s16 = swing 16ths

            
            
Suggest correction
Creating personal tab
Creating personal tab
You can edit any tab online and save it as your Personal.

You can edit, replace or remove any tab part or add personal notes – all changes will be seen only by you.

Personal tabs can be accessed anytime from any device, even offline.
Learn more »
Give kudos to tab author, rate the tab!
1 2 3 4 5
comments
print report bad tab
guest
You may want to rate the tab now too:
select rating
Wanna post a correction for this tab? Suggest correction