Oops, an error
Loading. Please wait.

The Medics - The Medics Tab

1,230 views 1 this week
1 commentread comment
1 2 3 4 5
please rate
add to favorites
launch autoscroll
font size
0
reset
how to read this tab
guitar tuner
Tab Pro tools
  • play this tab
  • loop segment
  • change instrument
  • show fretboard
  • metronome
Autoscroll
slow
fast
+/-
esc
set tempo
stop
Difficulty
novice
The Medics 

The Medics are a two peice band from Winnipeg.
This is off their self titled album.

The Whole Album is in standard tuning

Tracks:
1.Taste's Like Perfume
2.My Friend
3.Cold Hands
4.Black Magic
5.Summer Fields
6.Ransom
7.Fly Away

Taste's Like Perfume
[-----------|-----------|--------------------|----------]
[-----------|-----------|--------------------|----------]
[-----------|-2------2--|-4-444444-2-xxxxxx--|----------]
[-2------2--|-2------2--|-4-444444-2-xxxxxx--|-2------2-]
[-2------2--|-0-3-2-00--|-2-222222-0-xxxxxx--|-2------2-]
[-0-3-2-00--|-----------|--------------------|-0-3-2-00-]

        Verses
[-----------------------]
[-----------------------]
[-------------22222222--]
[-------------22222222--]
[-2-2-2-2-2-2-00000000--]
[-0-0-0-0-0-0-----------]

----------------------------------------------------------------------------

My Friend

[--------|---------------------]
[--------|---------------------]
[--------|---------------------]
[--------|---------------------]
[--------|---------------------]
[-3-3-33-|-5-55-1-11-3-3--3-3--]

-----------------------------------------------------------------------------

Cold Hands

[---------------------------]
[---------------------------]
[-2222222222-------55-7777--]
[-2222222222-55555-55-7777--]
[-0000000000-55555-33-5555--]
[------------33333----------]

Chorus
[---------------]
[---------------]
[-555555-777777-]
[-555555-777777-]
[-333333-555555-]
[---------------]

-----------------------------------------------------------------------------

Black Magic

[----------6-3-]----------3-3-]
[--------------]--------------]
[--------------]--------------]
[-55-33-55-----]-55-33-55-----]
[-55-33-55-----]-55-33-55-----]
[-33-11-33-----]-33-11-33-----]

    Verse
[--------------------]
[--------------------]
[--------------------]
[-5555-3333-55555555-]
[-5555-3333-55555555-]
[-3333-1111-33333333-]
  P.M...............

     bridge
[-----------------------------------]
[-----------------------------------]
[-----------------------------------]
[-555555555555555555555555555555555-]
[-555555555555555555555555555555555-]
[-333333333333333333333333333333333-]

-----------------------------------------------------------------------------

Summer Fields

[-11-11-9-999--11-11-9-999-------------------]
[--------------------------12-99999-12-99999-]
[--------------------------------------------]
[--------------------------------------------]
[--------------------------------------------]
[--------------------------------------------]

[-----------------------------------]
[-----------------------------------]
[-999999-111111111111-999999--------]
[-999999-111111111111-999999-999999-]
[-777777-9-9-9-9-9-9--777777-999999-]
[----------------------------777777-]

-----------------------------------------------------------------------------

Ransom
                    1.        2.
[---------------333-3333-]-555553--]
[------------------------]-------5-]
[------------------------]---------]
[-2xx555xx222------------]---------]
[-2xx555xx222------------]---------]
[-0xx333xx000------------]---------]

   Bridge
[--------------------------------]
[--------------------------------]
[--------------------------------]
[-22222222222222222222222222222--]
[-22222222222222222222222222222--]
[-00000000000000000000000000000--]
  P.M..........................

-----------------------------------------------------------------------------

Fly Away

[-9-10-12-10-9-10-9----9---------------------]
[-------------------12---12-10-12-8-10-------]
[--------------------------------------------]
[---------------------------------------777--]
[---------------------------------------777--]
[---------------------------------------555--]

    Verse
[--------------------------------------]
[--------------------------------------]
[--------------------------------------]
[--------------------------------------]
[--------------------------------------]
[-00000000-33333333-5555-3333-00000000-]

[--------------------------------------]
[--------------------------------------]
[--------------------------------------]
[-22222222-55555555-7777-5555-22222222-]
[-22222222-55555555-7777-5555-22222222-]
[-00000000-33333333-5555-3333-00000000-]

-----------------------------------------------------------------------------

Thats All
comments
We did not receive enough feedback on this tab! Please rate:
print report bad tab
1 2 3 4 5
1 comment total.
0 reply
SLD.Potato wrote on September 14 2008, 10:06 am

You guys have really simple songs.

I want to post or [tab]
guest
You may want to rate the tab now too:
select rating
Please do not post tabs as comments. Select "correction" instead!