Oops, an error
Loading. Please wait.

The Noveltones - Left Bank Two Tab

version 1
version 1

Intro

  • This is in the same key and is the same octave as ... Show more

Whole song

  • ver 1 new
    Complete song with all notes transcribed accuratel... Show more

Interactive

2,115 views 12 this week
1 commentread comment
1 2 3 4 5
x 3
add to favorites
×
Save as Personal and add changes to this tab that will be seen only by you. Learn more ›
×
You can save this tab as Personal to edit and correct it or add notes. All changes will be seen only by you. Learn more »
save as personal
new!
launch autoscroll
font size
0
reset
how to read this tab
guitar tuner
Autoscroll
slow
fast
+/-
esc
set tempo
stop
Author
Tuning
E A D G B E
As it happens, I've been away for quite a while, but I am true to my word
and the tab is closer to complete now.

E|----------------------------------------------|
B|----------------------------------------------|
G|----------------------------------------------|
D|-------------0-------2----0-------0-2---0-----|
A|-2---3---4--------------2-------------2---3---|
E|---3---3---3--------------------------------0-|

E|-----------------------------------|
B|-----------------------------------|
G|-----------------------------------|
D|-0---------------------------------|
A|---3-2-1-0-----2---0---0-2---0---3-|
E|-----------------2---------2---3---|

E|-------------------------------------|
B|-------------------------------------|
G|-------------------------------------|
D|-------0-2---2-0---------------------|
A|-0-2-3-----------3---2-0-------2-0---|
E|-------------------------3-2-------3-|

E|-----------------------------------|
B|-----------------------------------|
G|-0-----0---------------------------|
D|-----4---4-----4-2-0-2-----2-0---0-|
A|-----------2-----------1-------4---|
E|-----------------------------------|
Suggest correction
Give kudos to tab author, rate the tab!
1 2 3 4 5
comments
print report bad tab
1 comment total.
0 reply
bl00dgasm 10 Aug 18, 2015 07:31 PM

Tab incomplete. What is the point in uploadin a tab when you literally only have the first 2 bars! What a waste of time!

guest
You may want to rate the tab now too:
select rating
Wanna post a correction for this tab? Suggest correction