Oops, an error
Loading. Please wait.

The Noveltones - Left Bank Two Tab

version 1
version 1

Intro

  • This is in the same key and is the same octave as ... Show more

Whole song

49 views 12 this week
no commentswrite comment
1 2 3 4 5
3 more votes to show rating
add to favorites
launch autoscroll
font size
0
reset
how to read this tab
guitar tuner
Autoscroll
slow
fast
+/-
esc
set tempo
stop
Help us to improve Ultimate-Guitar.com Take our survey!
×
Author
Difficulty
novice
About this tab version
This is in the same key and is the same octave as the original. Only the intro rift. Was this info helpful? Yes No
Make sure to have some swing while playing this piece.


E|----------------------------12----10----10-12-------10---------|
B|12----13-----14----15----------12-------------12-------13------|
G|---12----12-----12----------------------------------------9----|
D|---------------------------------------------------------------|
A|---------------------------------------------------------------|
E|---------------------------------------------------------------|

E|-10---------------------------------------------------|
B|----13-12-11-10-----12----10----10-12-----10----13----|
G|-----------------------12------------12------12-------|
D|------------------------------------------------------|
A|------------------------------------------------------|
E|------------------------------------------------------|

E|----------10-12--12-10--------------------------------|
B|-10-12-13--------------13---12-10---------12----10----|
G|----------------------------------12-11------12----12-|
D|------------------------------------------------------|
A|------------------------------------------------------|
E|------------------------------------------------------|

E|-------------14-15--14-15-12-14-----14-12-10-12-------|
B|----------12--------------------12--------------------|
G|-12p11-12---------------------------------------------|
D|------------------------------------------------------|
A|------------------------------------------------------|
E|------------------------------------------------------|

This is just the intro for now but I'll probably add the rest later!


************************************

| p  Pull-off

************************************
Suggest correction
Give kudos to tab author, rate the tab!
1 2 3 4 5
comments
print report bad tab
guest
You may want to rate the tab now too:
select rating
Wanna post a correction for this tab? Suggest correction