Oops, an error
Loading. Please wait.

The Noveltones - Left Bank Two tab

version 1
version 1

Whole song

  • Complete song with all notes transcribed accuratel... Show more

Interactive

106 views 18 this week
no commentswrite comment
1 2 3 4 5
3 more votes to show rating
add to favorites
×
Save as Personal and add changes to this tab that will be seen only by you. Learn more ›
×
You can save this tab as Personal to edit and correct it or add notes. All changes will be seen only by you. Learn more »
launch autoscroll
font size
0
reset
how to read this tab
guitar tuner
edit
Autoscroll
slow
fast
+/-
esc
set tempo
stop
About this tab version
Complete song with all notes transcribed accurately, arranged according to rhythm including swing/triplet notation, and put into bars. Was this info helpful? Yes No
[A]

e|------------------------|---------------12--------|----------------12--------|------------------------|
B|---12-----13-----14-----|-15~--------------12--15~|(15)~-------15-----12--15-|(15)---13---------------|
G|-------12-----12-----12-|-------------------------|--------------------------|------------------------|
D|------------------------|-------------------------|--------------------------|-----------13~----------|
A|------------------------|-------------------------|--------------------------|------------------------|
E|------------------------|-------------------------|--------------------------|------------------------|
     \  3  /\  3  /\  3  /             \ 3  /\  3  /             \  3  /\  3  /        \  3  /

e|-----------10------------|-------------------------|-------------------------|------------------------|
B|---------------14-13--12-|-10~-----------12-----10~|(10)~----------12-----10-|(10)--------------------|
G|-------------------------|------------------11-----|------------------11-----|-------12---------------|
D|(13)---------------------|-------------------------|-------------------------|-----------10~----------|
A|-------------------------|-------------------------|-------------------------|------------------------|
E|-------------------------|-------------------------|-------------------------|------------------------|
             \  3  /\  3  /             \ 3  /\  3  /             \ 3  /\  3  /        \  3  /

e|-------------------------|------------12-----------|-------------------------|-------------------------|
B|-------------------------|------------------15--13~|(13)~----------12-10-----|-----------12-----10-----|
G|-------------------------|-------------------------|----------------------12-|-11~-----------11-----12~|
D|(10)-------10--11-12--13-|-14~---------------------|-------------------------|-------------------------|
A|-------------------------|-------------------------|-------------------------|-------------------------|
E|-------------------------|-------------------------|-------------------------|-------------------------|
             \  3  /\  3  /             \ 3  /\  3  /             \ 3  /\  3  /            \  3  /\  3  /

e|--------------------12-14-|-15~-------12--15-14--12-|-14------------14-12-----|-12--------12---------------|
B|------------------12------|-------------------------|-----12~--------------15-|---------------------15--14-|
G|(12)~-----12-11-12--------|-------------------------|-------------------------|-----15-------15--15--------|
D|--------------------------|-------------------------|-------------------------|----------------------------|
A|--------------------------|-------------------------|-------------------------|----------------------------|
E|--------------------------|-------------------------|-------------------------|----------------------------|
            \  3   /\  3   /            \  3  /\  3  /  \  3  /    \ 3  /\  3  /  \  3  /\ 3  /\  3  /\  3  /

[B]

e|----------------------------|---------------12--------|----------------12--------|------------------------|
B|-15----12-----13-----14-----|-15~--------------12--15~|(15)~-------15-----12--15-|(15)---13---------------|
G|-----------12-----12-----12-|-------------------------|--------------------------|------------------------|
D|----------------------------|-------------------------|--------------------------|-----------13~----------|
A|----------------------------|-------------------------|--------------------------|------------------------|
E|----------------------------|-------------------------|--------------------------|------------------------|
         \  3  /\  3  /\  3  /             \ 3  /\  3  /             \  3  /\  3  /        \  3  /

e|-----------10------------|-------------------------|-------------------------|------------------------|
B|---------------14-13--12-|-10~-----------12-----10~|(10)~----------12-----10-|(10)--------------------|
G|-------------------------|------------------11-----|------------------11-----|-------12---------------|
D|(13)---------------------|-------------------------|-------------------------|-----------10~----------|
A|-------------------------|-------------------------|-------------------------|------------------------|
E|-------------------------|-------------------------|-------------------------|------------------------|
             \  3  /\  3  /             \ 3  /\  3  /             \ 3  /\  3  /        \  3  /

e|-------------------------|------------12-----------|------------------------|---------------------------12-|
B|-------------------------|------------------15--13~|(13)~------------14--15~|(15)---13--12--------12-15----|
G|-------------------------|-------------------------|------------------------|------------------12----------|
D|(10)-------10--11-12--13-|-14~---------------------|------------------------|------------------------------|
A|-------------------------|-------------------------|------------------------|------------------------------|
E|-------------------------|-------------------------|------------------------|------------------------------|
             \  3  /\  3  /             \ 3  /\  3  /                  \  3  /        \  3  /\  3  /\   3   /

e|-15~------14--15-14--12-|--------------12--------|-----12-------------------|----------------------------|
B|------------------------|-15~------15-----12--15-|(15)----12--15------------|-------12--15-13-----12-----|
G|------------------------|------------------------|---------------------12---|(12)------------------------|
D|------------------------|------------------------|------------------14------|------------------13-----12-|
A|------------------------|------------------------|--------------------------|----------------------------|
E|------------------------|------------------------|--------------------------|----------------------------|
            \  3  /\  3  /           \  3  /\  3  /  \  3  /\  3  /\ 3  /             \  3  /\  3  /\  3  /

[A]

e|----------------------------|---------------12--------|----------------12--------|------------------------|
B|-------12-----13-----14-----|-15~--------------12--15~|(15)~-------15-----12--15-|(15)---13---------------|
G|-12--------12-----12-----12-|-------------------------|--------------------------|------------------------|
D|----------------------------|-------------------------|--------------------------|-----------13~----------|
A|----------------------------|-------------------------|--------------------------|------------------------|
E|----------------------------|-------------------------|--------------------------|------------------------|
         \  3  /\  3  /\  3  /             \ 3  /\  3  /             \  3  /\  3  /        \  3  /

e|-----------10------------|-------------------------|-------------------------|------------------------|
B|---------------14-13--12-|-10~-----------12-----10~|(10)~----------12-----10-|(10)--------------------|
G|-------------------------|------------------11-----|------------------11-----|-------12---------------|
D|(13)---------------------|-------------------------|-------------------------|-----------10~----------|
A|-------------------------|-------------------------|-------------------------|------------------------|
E|-------------------------|-------------------------|-------------------------|------------------------|
             \  3  /\  3  /             \ 3  /\  3  /             \ 3  /\  3  /        \  3  /

e|-------------------------|------------12-----------|-------------------------|-------------------------|
B|-------------------------|------------------15--13~|(13)~----------12-10-----|-----------12-----10-----|
G|-------------------------|-------------------------|----------------------12-|-11~-----------11-----12~|
D|(10)-------10--11-12--13-|-14~---------------------|-------------------------|-------------------------|
A|-------------------------|-------------------------|-------------------------|-------------------------|
E|-------------------------|-------------------------|-------------------------|-------------------------|
             \  3  /\  3  /             \ 3  /\  3  /             \ 3  /\  3  /            \  3  /\  3  /

e|--------------------12-14-|-15~-------12--15-14--12-|-14------------14-12-----|-12--------12---------------|
B|------------------12------|-------------------------|-----12~--------------15-|---------------------15--14-|
G|(12)~-----12-11-12--------|-------------------------|-------------------------|-----15-------15--15--------|
D|--------------------------|-------------------------|-------------------------|----------------------------|
A|--------------------------|-------------------------|-------------------------|----------------------------|
E|--------------------------|-------------------------|-------------------------|----------------------------|
            \  3   /\  3   /            \  3  /\  3  /  \  3  /    \ 3  /\  3  /  \  3  /\ 3  /\  3  /\  3  /

[B]

e|----------------------------|---------------12--------|----------------12--------|------------------------|
B|-15----12-----13-----14-----|-15~--------------12--15~|(15)~-------15-----12--15-|(15)---13---------------|
G|-----------12-----12-----12-|-------------------------|--------------------------|------------------------|
D|----------------------------|-------------------------|--------------------------|-----------13~----------|
A|----------------------------|-------------------------|--------------------------|------------------------|
E|----------------------------|-------------------------|--------------------------|------------------------|
         \  3  /\  3  /\  3  /             \ 3  /\  3  /             \  3  /\  3  /        \  3  /

e|-----------10------------|-------------------------|-------------------------|------------------------|
B|---------------14-13--12-|-10~-----------12-----10~|(10)~----------12-----10-|(10)--------------------|
G|-------------------------|------------------11-----|------------------11-----|-------12---------------|
D|(13)---------------------|-------------------------|-------------------------|-----------10~----------|
A|-------------------------|-------------------------|-------------------------|------------------------|
E|-------------------------|-------------------------|-------------------------|------------------------|
             \  3  /\  3  /             \ 3  /\  3  /             \ 3  /\  3  /        \  3  /

e|-------------------------|------------12-----------|------------------------|---------------------------12-|
B|-------------------------|------------------15--13~|(13)~------------14--15~|(15)---13--12--------12-15----|
G|-------------------------|-------------------------|------------------------|------------------12----------|
D|(10)-------10--11-12--13-|-14~---------------------|------------------------|------------------------------|
A|-------------------------|-------------------------|------------------------|------------------------------|
E|-------------------------|-------------------------|------------------------|------------------------------|
             \  3  /\  3  /             \ 3  /\  3  /                  \  3  /        \  3  /\  3  /\   3   /

                                                                                      fade out
e|-15~------14--15-14--12-|--------------12--------|-----12-------------------|----------------------------|
B|------------------------|-15~------15-----12--15-|(15)----12--15------------|-------12--15-13-----12-----|
G|------------------------|------------------------|---------------------12---|(12)------------------------|
D|------------------------|------------------------|------------------14------|------------------13-----12-|
A|------------------------|------------------------|--------------------------|----------------------------|
E|------------------------|------------------------|--------------------------|----------------------------|
            \  3  /\  3  /           \  3  /\  3  /  \  3  /\  3  /\ 3  /             \  3  /\  3  /\  3  /


**************************************

| ~     Vibrato
| (n)   Hold note over bar line
| \ 3 / Triplets or swing rhythm
        (1/4 triplet + 1/8 triplet)

**************************************
Suggest correction
Creating personal tab
Creating personal tab
You can edit any tab online and save it as your Personal.

You can edit, replace or remove any tab part or add personal notes – all changes will be seen only by you.

Personal tabs can be accessed anytime from any device, even offline.
Learn more »
Give kudos to tab author, rate the tab!
1 2 3 4 5
comments
print report bad tab
guest
You may want to rate the tab now too:
select rating
Wanna post a correction for this tab? Suggest correction