Oops, an error
Loading. Please wait.

The Perfect Failure - Bury The Hatchet Tab

101 views 1 this week
no commentswrite comment
1 2 3 4 5
please rate
add to favorites
launch autoscroll
font size
0
reset
how to read this tab
guitar tuner
Tab Pro tools
  • play this tab
  • loop segment
  • change instrument
  • show fretboard
  • metronome
Autoscroll
slow
fast
+/-
esc
set tempo
stop
Contributor
Tuning
D A D G B E
Tabbed by: Michael Workman
Email: fltbrok89@hotmail.com

Tuning: Drop-D


-LEAD GUITAR-

INTRO
e|--------------------------------------------------------------------------|
B|--------------------------------------------------------------------------|
G|--------------------------------------------------------------------------|
D|--2-2--5p2-4p2-5p2-4p2-----4-5-5---2-2-5p2-4p2-5p2-4p2-----4-5-5----------|
A|--2-2------------------3p5---------2-2-----------------3p5----------------|
E|--2-2------------------------------2-2------------------------------------|

e|---------------------------------------------------------------------------|
B|---------------------------------------------------------------------------|
G|---------------------------------------------------------------------------|
D|--0-0--5p0-4p0-5p0-4p0-----4-5-5---0-0-5p0-4p0-5p0-7p0-5p0-4-5-5-----------|
A|--0-0------------------3p5---------0-0-------------------------------------|
E|--0-0------------------------------0-0-------------------------------------|

DUAL
e|---------------------------------------------------------------------------|
B|---------------------------------------------------------------------------|
G|--9-9--12p9-11p9-12p9-11p9-------11-12-12---9-9--12p9-11p9-12p9-11p9-------|
D|---------------------------10-12-------------------------------------10-12-|
A|---------------------------------------------------------------------------|
E|---------------------------------------------------------------------------|

e|--------------------------------------------------------------------------|
B|--------------------------------------------------------------------------|
G|--11-12-12---------12----11----12----11-------11-12-12---------12----11---|
D|-------------12-12----12----12----12----10-12------------12-12----12----12|
A|--------------------------------------------------------------------------|
E|--------------------------------------------------------------------------|

e|----------------------------------------------------------------------------|
B|----------------------------------------------------------------------------|
G|--12----14----12----11-12-12------------------------------------------------|
D|-----12----12----12-------12------------------------------------------------|
A|----------------------------------------------------------------------------|
E|----------------------------------------------------------------------------|

VERSE (play this twice)
e|---------------------------------------------------------------------------|
B|---------------------------------------------------------------------------|
G|-9--9-9-9-9-9-9-9-9-9-9-7-7-7-9--9-9-9-9-9-9-9-9-9-9-9-9-------------------|
D|-x--x-x-x-x-x-x-x-x-x-x-x-x-x-x--x-x-x-x-x-x-x-x-x-x-x-x-------------------|
A|-7--7-7-7-7-7-7-7-7-7-7-5-5-5-7--7-7-7-7-7-7-7-7-7-7-7-7-------------------|
E|---------------------------------------------------------------------------|

e|-------------------------------------------------------------------------||
B|-------------------------------------------------------------------------||
G|-7--------------------------7--------------------------------------------||
D|-7--7-7-7-7-7-7-7-7-7-7-7-7-7--7-7-7-7-7-7-7-7-7-7-7-7-------------------||
A|-5--5-5-5-5-5-5-5-5-5-5-5-5-5--5-5-5-5-5-5-5-5-5-5-5-5-------------------||
E|-------------------------------------------------------------------------||
      x x x x x x x x x x x x    x x x x x x x x x x x x

CHORUS (play 4 times)
e|--------------------------------------------------------------------------|
B|--------------------------------------------------------------------------|
G|-9-9-9-9-9-9-9-9-7-7-7-7-7-7-7-7-5-5-5-5-5-5-5-5-7-7-7-7-7-7-7-7----------|
D|-9-9-9-9-9-9-9-9-7-7-7-7-7-7-7-7-5-5-5-5-5-5-5-5-7-7-7-7-7-7-7-7----------|
A|-7-7-7-7-7-7-7-7-5-5-5-5-5-5-5-5-3-3-3-3-3-3-3-3-5-5-5-5-5-5-5-5----------|
E|--------------------------------------------------------------------------|


POST CHORUS
e|---------------------------------------------------------------------------|
B|---------------------------------------------------------------------------|
G|--9-9--12p9-11p9-12p9-11p9-------11-12-12----------------------------------|
D|--------------------------10h12--------------------------------------------|
A|---------------------------------------------------------------------------|
E|---------------------------------------------------------------------------|


e|---------------------------------------------------------------------------|
B|---------------------------------------------------------------------------|
G|--9-9--12p9-11p9-12p9-T14p95129p-------11-12-12----------------------------|
D|---------------------------------10h12-------------------------------------|
A|---------------------------------------------------------------------------|
E|---------------------------------------------------------------------------|

BRIDGE (play 4 times)
e|--------------------------------------------------------------------------|
B|--------------------------------------------------------------------------|
G|--9-----------------------------------------------------------------------|
D|--9----5-4--------9----5-4------------5-4----------5p4-5/7\5p4------------|
A|--7--------5--7---7--------5--7-\-3-------5--3---5-------------5-5--------|
E|--------------------------------------------------------------------------|

SOLO
e|-----8---8----------------------------------------------------------------|
B|--8^^-8^^--8~-----------7h8p7---------------------------------------------|
G|--------------9-7---7h9-------9p7\5--5t7-5--5h7h5/9-7-5-7`----------------|
D|--------------------------------------------------------------------------|
A|--------------------------------------------------------------------------|
E|--------------------------------------------------------------------------|
                                                          +

e|------15----15----15------------------------------------------------------|
B|--15^----15----15----15p13p12h13~--------12h13p12-------------------------|
G|-----------------------------------12h14----------14p12p11----------------|
D|-----------------------------------------------------------14~------------|
A|--------------------------------------------------------------------------|
E|--------------------------------------------------------------------------|


e|--------------------------------------------------------------------------|
B|--------------------------------------------------------------------------|
G|--------12-------14-------12-------14p12p11h12~-11~-9~-7~-----------------|
D|--12h14----12h14----12h14----12h14----------------------------------------|
A|--------------------------------------------------------------------------|
E|--------------------------------------------------------------------------|


e|--------------------------------------------------------------------------|
B|--------------------------------------------------------------------------|
G|--------11-------14\--------14-------17\----------------------------------|
D|--12-14----12-14------12-14----12-14--------------------------------------|
A|--------------------------------------------------------------------------|
E|--------------------------------------------------------------------------|

----------------------------------------------------------------------------|
----------------------------------------------------------------------------|
::::::::::::::::::::::::::::::::::::::::::::::::::::::::::::::::::::::::::::
::::::::::::::::::::::::::::::::::::::::::::::::::::::::::::::::::::::::::::
----------------------------------------------------------------------------|
----------------------------------------------------------------------------|


-RHYTHM GUITAR-

INTRO
e|--------------------------------------------------------------------------|
B|--------------------------------------------------------------------------|
G|--------------------------------------------------------------------------|
D|--2-2------------------------------2-2------------------------------------|
A|--2-2------------------------------2-2------------------------------------|
E|--2-2------------------------------2-2------------------------------------|

e|--------------------------------------------------------------------------|
B|--------------------------------------------------------------------------|
G|--------------------------------------------------------------------------|
D|--0-0------------------------------0-0------------------------------------|
A|--0-0------------------------------0-0------------------------------------|
E|--0-0------------------------------0-0------------------------------------|

DUAL
e|--------------------------------------------------------------------------|
B|--------------------------------------------------------------------------|
G|--------------------------------------------------------------------------|
D|--2-2--5p2-4p2-5p2-4p2-----4-5-5---2-2-5p2-4p2-5p2-4p2-----4-5-5----------|
A|-----------------------3p5-----------------------------3p5----------------|
E|--------------------------------------------------------------------------|

e|---------------------------------------------------------------------------|
B|---------------------------------------------------------------------------|
G|---------------------------------------------------------------------------|
D|--0-0--5p0-4p0-5p0-4p0-----4-5-5---0-0-5p0-4p0-5p0-7p0-5p0-4-5-5-----------|
A|-----------------------3p5-------------------------------------------------|
E|---------------------------------------------------------------------------|


VERSE (play this twice)
e|---------------------------------------------------------------------------|
B|---------------------------------------------------------------------------|
G|---------------------------------------------------------------------------|
D|-2--2-2-2-2-2-2-2-2-2-2-0-0-0-2--2-2-2-2-2-2-2-2-2-2-2-2-2-2-2-------------|
A|-2--2-2-2-2-2-2-2-2-2-2-0-0-0-2--2-2-2-2-2-2-2-2-2-2-2-2-2-2-2-------------|
E|-2--2-2-2-2-2-2-2-2-2-2-0-0-0-2--2-2-2-2-2-2-2-2-2-2-2-2-2-2-2-------------|

e|-------------------------------------------------------------------------||
B|-------------------------------------------------------------------------||
G|-------------------------------------------------------------------------||
D|-0--------------------------0--------------------------------------------||
A|-0--0-0-0-0-0-0-0-0-0-0-0-0-0--0-0-0-0-0-0-0-0-0-0-0-0-------------------||
E|-0--0-0-0-0-0-0-0-0-0-0-0-0-0--0-0-0-0-0-0-0-0-0-0-0-0-------------------||
      x x x x x x x x x x x x    x x x x x x x x x x x x

CHORUS (play 4 times)
e|--------------------------------------------------------------------------|
B|--------------------------------------------------------------------------|
G|-9-9-9-9-9-9-9-9-7-7-7-7-7-7-7-7-5-5-5-5-5-5-5-5-7-7-7-7-7-7-7-7----------|
D|-9-9-9-9-9-9-9-9-7-7-7-7-7-7-7-7-5-5-5-5-5-5-5-5-7-7-7-7-7-7-7-7----------|
A|-7-7-7-7-7-7-7-7-5-5-5-5-5-5-5-5-3-3-3-3-3-3-3-3-5-5-5-5-5-5-5-5----------|
E|--------------------------------------------------------------------------|

POST CHORUS
e|--------------------------------------------------------------------------|
B|--------------------------------------------------------------------------|
G|---------------------------------------------------2----------------------|
D|--2-2------------------------------2-2-5p2-4p2-5p2---2-5p2-4-5-5----------|
A|--2-2---------------------------------------------------------------------|
E|--2-2---------------------------------------------------------------------|

BRIDGE (play 4 times)
e|--------------------------------------------------------------------------|
B|--------------------------------------------------------------------------|
G|--9---------------9---------------5--------------7------------------------|
D|--9---------------9---------------5--------------7------------------------|
A|--7---------------7---------------3--------------5------------------------|
E|--------------------------------------------------------------------------|


SOLO RHYTHM (play twice)
e|--------------------------------------------------------------------------|
B|--------------------------------------------------------------------------|
G|--9-----9-----9-----9-----7-7-7-9------9-----9-----9-----7-7-7------------|
D|--9-9-9-9-9-9-9-9-9-9-9-9-x-x-x-9--9-9-9-9-9-9-9-9-9-9-9-x-x-x------------|
A|--7-7-7-7-7-7-7-7-7-7-7-7-5-5-5-7--7-7-7-7-7-7-7-7-7-7-7-5-5-5------------|
E|--------------------------------------------------------------------------|
       x x  x x   x x   x x          x x   x x   x x   x x


e|--------------------------------------------------------------------------|
B|--------------------------------------------------------------------------|
G|--5-----5-----5-----5-------7---7------7-----7-----7-------7--------------|
D|--5-5-5-5-5-5-5-5-5-5-5-5-7-5-7-7--7-7-7-7-7-7-7-7-7-7-7-7-5-7------------|
A|--3-3-3-3-3-3-3-3-3-3-3-3-5---5-5--5-5-5-5-5-5-5-5-5-5-5-5---5------------|
E|--------------------------------------------------------------------------|
      x x   x x   x x   x x          x x   x x   x x   x x


::SONG ORDER::
INTRO
DUAL
VERSE
CHORUS
POST CHORUS
VERSE
CHORUS
POST CHORUS
BRIDGE
SOLO
POST CHORUS
VERSE
CHORUS
End on E5, slide down

| /  slide up
| \  slide down
| h  hammer-on
| p  pull-off
| t  trill
| T  tap
| ~  vibrato
| +  harmonic
| `  raise bar
| x  mute note
| ^  bend
| ^^ hold Bend


LYRICS

like a punch to the face
you left your mark in this place
you never said what you were supposed to
my pulse drops out
what the hell was i thinking
you never did what i expected

if it were up to me,
id say let me be (let me be)
bury the hatchet
along with her bones (whoa-oh-oh)
my timing has never been quite so great
but this time i got it perfectly

let the air rush in
my lungs they feel so cold
you never helped me but still i was sold
sold to your lies
and your phantom like facade
you fooled me, i was the pawn

if it were up to me,
id say let me be (let me be)
bury the hatchet
along with her bones (whoa-oh-oh)
my timing has never been quite so great
but this time i got it perfectly

like a punch to the face
you never your mark in this place
you never did what i expected
sold to your lies
i fell for your facade
you fooled me, i was the pawn

if it were up to me,
id say let me be (let me be)
bury the hatchet
along with her bones (whoa-oh-oh)
my timing has never been quite so great
but this time i got it perfectly (perfectly)
comments
We did not receive enough feedback on this tab! Please rate:
print report bad tab
1 2 3 4 5
I want to post or [tab]
guest
You may want to rate the tab now too:
select rating
Please do not post tabs as comments. Select "correction" instead!